  0
SECTION
  2
HEADER
  9
$ACADVER
  1
AC1015
  9
$ACADMAINTVER
 70
    18
  9
$DWGCODEPAGE
  3
ANSI_1252
  9
$INSBASE
 10
0.0
 20
0.0
 30
0.0
  9
$EXTMIN
 10
-184.3267814632584
 20
-542.2008361213385
 30
-0.0015258207003583
  9
$EXTMAX
 10
186.5121467021667
 20
249.5378271743397
 30
0.0000000349246037
  9
$LIMMIN
 10
0.0
 20
0.0
  9
$LIMMAX
 10
420.0
 20
297.0
  9
$ORTHOMODE
 70
     0
  9
$REGENMODE
 70
     1
  9
$FILLMODE
 70
     1
  9
$QTEXTMODE
 70
     0
  9
$MIRRTEXT
 70
     0
  9
$LTSCALE
 40
1.0
  9
$ATTMODE
 70
     1
  9
$TEXTSIZE
 40
2.5
  9
$TRACEWID
 40
1.0
  9
$TEXTSTYLE
  7
Standard
  9
$CLAYER
  8
0
  9
$CELTYPE
  6
ByLayer
  9
$CECOLOR
 62
   256
  9
$CELTSCALE
 40
1.0
  9
$DISPSILH
 70
     0
  9
$DIMSCALE
 40
1.0
  9
$DIMASZ
 40
2.5
  9
$DIMEXO
 40
0.625
  9
$DIMDLI
 40
3.75
  9
$DIMRND
 40
0.0
  9
$DIMDLE
 40
0.0
  9
$DIMEXE
 40
1.25
  9
$DIMTP
 40
0.0
  9
$DIMTM
 40
0.0
  9
$DIMTXT
 40
2.5
  9
$DIMCEN
 40
2.5
  9
$DIMTSZ
 40
0.0
  9
$DIMTOL
 70
     0
  9
$DIMLIM
 70
     0
  9
$DIMTIH
 70
     0
  9
$DIMTOH
 70
     0
  9
$DIMSE1
 70
     0
  9
$DIMSE2
 70
     0
  9
$DIMTAD
 70
     1
  9
$DIMZIN
 70
     8
  9
$DIMBLK
  1

  9
$DIMASO
 70
     1
  9
$DIMSHO
 70
     1
  9
$DIMPOST
  1

  9
$DIMAPOST
  1

  9
$DIMALT
 70
     0
  9
$DIMALTD
 70
     3
  9
$DIMALTF
 40
0.03937007874016
  9
$DIMLFAC
 40
1.0
  9
$DIMTOFL
 70
     1
  9
$DIMTVP
 40
0.0
  9
$DIMTIX
 70
     0
  9
$DIMSOXD
 70
     0
  9
$DIMSAH
 70
     0
  9
$DIMBLK1
  1

  9
$DIMBLK2
  1

  9
$DIMSTYLE
  2
ISO-25
  9
$DIMCLRD
 70
     0
  9
$DIMCLRE
 70
     0
  9
$DIMCLRT
 70
     0
  9
$DIMTFAC
 40
1.0
  9
$DIMGAP
 40
0.625
  9
$DIMJUST
 70
     0
  9
$DIMSD1
 70
     0
  9
$DIMSD2
 70
     0
  9
$DIMTOLJ
 70
     0
  9
$DIMTZIN
 70
     8
  9
$DIMALTZ
 70
     0
  9
$DIMALTTZ
 70
     0
  9
$DIMUPT
 70
     0
  9
$DIMDEC
 70
     2
  9
$DIMTDEC
 70
     2
  9
$DIMALTU
 70
     2
  9
$DIMALTTD
 70
     3
  9
$DIMTXSTY
  7
Standard
  9
$DIMAUNIT
 70
     0
  9
$DIMADEC
 70
     0
  9
$DIMALTRND
 40
0.0
  9
$DIMAZIN
 70
     0
  9
$DIMDSEP
 70
    44
  9
$DIMATFIT
 70
     3
  9
$DIMFRAC
 70
     0
  9
$DIMLDRBLK
  1

  9
$DIMLUNIT
 70
     2
  9
$DIMLWD
 70
    -2
  9
$DIMLWE
 70
    -2
  9
$DIMTMOVE
 70
     0
  9
$LUNITS
 70
     2
  9
$LUPREC
 70
     4
  9
$SKETCHINC
 40
1.0
  9
$FILLETRAD
 40
0.0
  9
$AUNITS
 70
     0
  9
$AUPREC
 70
     0
  9
$MENU
  1
.
  9
$ELEVATION
 40
0.0
  9
$PELEVATION
 40
0.0
  9
$THICKNESS
 40
0.0
  9
$LIMCHECK
 70
     0
  9
$CHAMFERA
 40
0.0
  9
$CHAMFERB
 40
0.0
  9
$CHAMFERC
 40
0.0
  9
$CHAMFERD
 40
0.0
  9
$SKPOLY
 70
     0
  9
$TDCREATE
 40
2460286.622500000
  9
$TDUCREATE
 40
2460286.330833334
  9
$TDUPDATE
 40
2460286.638043982
  9
$TDUUPDATE
 40
2460286.346377315
  9
$TDINDWG
 40
0.0048263889
  9
$TDUSRTIMER
 40
0.0048263889
  9
$USRTIMER
 70
     1
  9
$ANGBASE
 50
0.0
  9
$ANGDIR
 70
     0
  9
$PDMODE
 70
     0
  9
$PDSIZE
 40
0.0
  9
$PLINEWID
 40
0.0
  9
$SPLFRAME
 70
     0
  9
$SPLINETYPE
 70
     6
  9
$SPLINESEGS
 70
     8
  9
$HANDSEED
  5
C1E2
  9
$SURFTAB1
 70
     6
  9
$SURFTAB2
 70
     6
  9
$SURFTYPE
 70
     6
  9
$SURFU
 70
     6
  9
$SURFV
 70
     6
  9
$UCSBASE
  2

  9
$UCSNAME
  2

  9
$UCSORG
 10
0.0
 20
0.0
 30
0.0
  9
$UCSXDIR
 10
1.0
 20
0.0
 30
0.0
  9
$UCSYDIR
 10
0.0
 20
1.0
 30
0.0
  9
$UCSORTHOREF
  2

  9
$UCSORTHOVIEW
 70
     0
  9
$UCSORGTOP
 10
0.0
 20
0.0
 30
0.0
  9
$UCSORGBOTTOM
 10
0.0
 20
0.0
 30
0.0
  9
$UCSORGLEFT
 10
0.0
 20
0.0
 30
0.0
  9
$UCSORGRIGHT
 10
0.0
 20
0.0
 30
0.0
  9
$UCSORGFRONT
 10
0.0
 20
0.0
 30
0.0
  9
$UCSORGBACK
 10
0.0
 20
0.0
 30
0.0
  9
$PUCSBASE
  2

  9
$PUCSNAME
  2

  9
$PUCSORG
 10
0.0
 20
0.0
 30
0.0
  9
$PUCSXDIR
 10
1.0
 20
0.0
 30
0.0
  9
$PUCSYDIR
 10
0.0
 20
1.0
 30
0.0
  9
$PUCSORTHOREF
  2

  9
$PUCSORTHOVIEW
 70
     0
  9
$PUCSORGTOP
 10
0.0
 20
0.0
 30
0.0
  9
$PUCSORGBOTTOM
 10
0.0
 20
0.0
 30
0.0
  9
$PUCSORGLEFT
 10
0.0
 20
0.0
 30
0.0
  9
$PUCSORGRIGHT
 10
0.0
 20
0.0
 30
0.0
  9
$PUCSORGFRONT
 10
0.0
 20
0.0
 30
0.0
  9
$PUCSORGBACK
 10
0.0
 20
0.0
 30
0.0
  9
$USERI1
 70
     0
  9
$USERI2
 70
     0
  9
$USERI3
 70
     0
  9
$USERI4
 70
     0
  9
$USERI5
 70
     0
  9
$USERR1
 40
0.0
  9
$USERR2
 40
0.0
  9
$USERR3
 40
0.0
  9
$USERR4
 40
0.0
  9
$USERR5
 40
0.0
  9
$WORLDVIEW
 70
     1
  9
$SHADEDGE
 70
     3
  9
$SHADEDIF
 70
    70
  9
$TILEMODE
 70
     1
  9
$MAXACTVP
 70
    48
  9
$PINSBASE
 10
0.0
 20
0.0
 30
0.0
  9
$PLIMCHECK
 70
     0
  9
$PEXTMIN
 10
0.0
 20
0.0
 30
0.0
  9
$PEXTMAX
 10
0.0
 20
0.0
 30
0.0
  9
$PLIMMIN
 10
0.0
 20
0.0
  9
$PLIMMAX
 10
12.0
 20
9.0
  9
$UNITMODE
 70
     0
  9
$VISRETAIN
 70
     1
  9
$PLINEGEN
 70
     0
  9
$PSLTSCALE
 70
     1
  9
$TREEDEPTH
 70
  3020
  9
$CMLSTYLE
  2
Standard
  9
$CMLJUST
 70
     0
  9
$CMLSCALE
 40
20.0
  9
$PROXYGRAPHICS
 70
     1
  9
$MEASUREMENT
 70
     1
  9
$CELWEIGHT
370
    -1
  9
$ENDCAPS
280
     0
  9
$JOINSTYLE
280
     0
  9
$LWDISPLAY
290
     0
  9
$INSUNITS
 70
     4
  9
$HYPERLINKBASE
  1

  9
$STYLESHEET
  1

  9
$XEDIT
290
     1
  9
$CEPSNTYPE
380
     0
  9
$PSTYLEMODE
290
     1
  9
$FINGERPRINTGUID
  2
{F076C30E-3F10-754B-AD36-B589FE558AAC}
  9
$VERSIONGUID
  2
{537815EC-C374-434B-949A-F824552F8682}
  9
$EXTNAMES
290
     1
  9
$PSVPSCALE
 40
0.0
  9
$OLESTARTUP
290
     0
  0
ENDSEC
  0
SECTION
  2
CLASSES
  0
CLASS
  1
ACDBDICTIONARYWDFLT
  2
AcDbDictionaryWithDefault
  3
ObjectDBX Classes
 90
        0
280
     0
281
     0
  0
CLASS
  1
ACDBPLACEHOLDER
  2
AcDbPlaceHolder
  3
ObjectDBX Classes
 90
        0
280
     0
281
     0
  0
CLASS
  1
LAYOUT
  2
AcDbLayout
  3
ObjectDBX Classes
 90
        0
280
     0
281
     0
  0
CLASS
  1
DICTIONARYVAR
  2
AcDbDictionaryVar
  3
ObjectDBX Classes
 90
        0
280
     0
281
     0
  0
CLASS
  1
TABLESTYLE
  2
AcDbTableStyle
  3
ObjectDBX Classes
 90
     4095
280
     0
281
     0
  0
CLASS
  1
MATERIAL
  2
AcDbMaterial
  3
ObjectDBX Classes
 90
     1153
280
     0
281
     0
  0
CLASS
  1
VISUALSTYLE
  2
AcDbVisualStyle
  3
ObjectDBX Classes
 90
     4095
280
     0
281
     0
  0
CLASS
  1
SCALE
  2
AcDbScale
  3
ObjectDBX Classes
 90
     1153
280
     0
281
     0
  0
CLASS
  1
MLEADERSTYLE
  2
AcDbMLeaderStyle
  3
ACDB_MLEADERSTYLE_CLASS
 90
     4095
280
     0
281
     0
  0
CLASS
  1
CELLSTYLEMAP
  2
AcDbCellStyleMap
  3
ObjectDBX Classes
 90
     1152
280
     0
281
     0
  0
CLASS
  1
EXACXREFPANELOBJECT
  2
ExAcXREFPanelObject
  3
EXAC_ESW
 90
    33793
280
     0
281
     0
  0
CLASS
  1
NPOCOLLECTION
  2
AcDbImpNonPersistentObjectsCollection
  3
ObjectDBX Classes
 90
    33921
280
     0
281
     0
  0
CLASS
  1
LAYER_INDEX
  2
AcDbLayerIndex
  3
ObjectDBX Classes
 90
    32768
280
     0
281
     0
  0
CLASS
  1
SPATIAL_INDEX
  2
AcDbSpatialIndex
  3
ObjectDBX Classes
 90
    32768
280
     0
281
     0
  0
CLASS
  1
IDBUFFER
  2
AcDbIdBuffer
  3
ObjectDBX Classes
 90
    32768
280
     0
281
     0
  0
CLASS
  1
ACDBSECTIONVIEWSTYLE
  2
AcDbSectionViewStyle
  3
ObjectDBX Classes
 90
     1025
280
     0
281
     0
  0
CLASS
  1
ACDBDETAILVIEWSTYLE
  2
AcDbDetailViewStyle
  3
ObjectDBX Classes
 90
     1025
280
     0
281
     0
  0
CLASS
  1
XRECORD
  2
AcDbXrecord
  3
ObjectDBX Classes
 90
        0
280
     0
281
     0
  0
ENDSEC
  0
SECTION
  2
TABLES
  0
TABLE
  2
VPORT
  5
8
102
{ACAD_XDICTIONARY
360
C0F0
102
}
330
0
100
AcDbSymbolTable
 70
     1
  0
VPORT
  5
EA
330
8
100
AcDbSymbolTableRecord
100
AcDbViewportTableRecord
  2
*Active
 70
     0
 10
0.0
 20
0.0
 11
1.0
 21
1.0
 12
1.092682619454166
 22
-146.3315044734994
 13
0.0
 23
0.0
 14
10.0
 24
10.0
 15
10.0
 25
10.0
 16
0.0
 26
0.0
 36
1.0
 17
0.0
 27
0.0
 37
0.0
 40
841.942318431905
 41
0.9846153846153846
 42
50.0
 43
0.0
 44
0.0
 50
0.0
 51
0.0
 71
     0
 72
  1000
 73
     1
 74
     3
 75
     0
 76
     1
 77
     0
 78
     0
281
     0
 65
     1
110
0.0
120
0.0
130
0.0
111
1.0
121
0.0
131
0.0
112
0.0
122
1.0
132
0.0
 79
     0
146
0.0
1001
ACAD_NAV_VCDISPLAY
1070
     3
  0
ENDTAB
  0
TABLE
  2
LTYPE
  5
5
330
0
100
AcDbSymbolTable
 70
     1
  0
LTYPE
  5
14
330
5
100
AcDbSymbolTableRecord
100
AcDbLinetypeTableRecord
  2
ByBlock
 70
     0
  3

 72
    65
 73
     0
 40
0.0
  0
LTYPE
  5
15
330
5
100
AcDbSymbolTableRecord
100
AcDbLinetypeTableRecord
  2
ByLayer
 70
     0
  3

 72
    65
 73
     0
 40
0.0
  0
LTYPE
  5
16
330
5
100
AcDbSymbolTableRecord
100
AcDbLinetypeTableRecord
  2
Continuous
 70
     0
  3
Solid line
 72
    65
 73
     0
 40
0.0
  0
ENDTAB
  0
TABLE
  2
LAYER
  5
2
102
{ACAD_XDICTIONARY
360
1FF
102
}
330
0
100
AcDbSymbolTable
 70
     1
  0
LAYER
  5
10
102
{ACAD_XDICTIONARY
360
13C
102
}
330
2
100
AcDbSymbolTableRecord
100
AcDbLayerTableRecord
  2
0
 70
     0
 62
     7
  6
Continuous
370
    -3
390
F
  0
ENDTAB
  0
TABLE
  2
STYLE
  5
3
330
0
100
AcDbSymbolTable
 70
     1
  0
STYLE
  5
11
330
3
100
AcDbSymbolTableRecord
100
AcDbTextStyleTableRecord
  2
Standard
 70
     0
 40
0.0
 41
1.0
 50
0.0
 71
     0
 42
2.5
  3
arial.ttf
  4

1001
ACAD
1000
Arial
1071
       34
  0
ENDTAB
  0
TABLE
  2
VIEW
  5
6
330
0
100
AcDbSymbolTable
 70
     0
  0
ENDTAB
  0
TABLE
  2
UCS
  5
7
330
0
100
AcDbSymbolTable
 70
     0
  0
ENDTAB
  0
TABLE
  2
APPID
  5
9
330
0
100
AcDbSymbolTable
 70
     8
  0
APPID
  5
12
330
9
100
AcDbSymbolTableRecord
100
AcDbRegAppTableRecord
  2
ACAD
 70
     0
  0
APPID
  5
9E
330
9
100
AcDbSymbolTableRecord
100
AcDbRegAppTableRecord
  2
ACAD_PSEXT
 70
     0
  0
APPID
  5
133
330
9
100
AcDbSymbolTableRecord
100
AcDbRegAppTableRecord
  2
AcadAnnoPO
 70
     0
  0
APPID
  5
134
330
9
100
AcDbSymbolTableRecord
100
AcDbRegAppTableRecord
  2
AcadAnnotative
 70
     0
  0
APPID
  5
135
330
9
100
AcDbSymbolTableRecord
100
AcDbRegAppTableRecord
  2
ACAD_DSTYLE_DIMJAG
 70
     0
  0
APPID
  5
136
330
9
100
AcDbSymbolTableRecord
100
AcDbRegAppTableRecord
  2
ACAD_DSTYLE_DIMTALN
 70
     0
  0
APPID
  5
165
330
9
100
AcDbSymbolTableRecord
100
AcDbRegAppTableRecord
  2
ACAD_MLEADERVER
 70
     0
  0
APPID
  5
217
330
9
100
AcDbSymbolTableRecord
100
AcDbRegAppTableRecord
  2
ACAD_NAV_VCDISPLAY
 70
     0
  0
ENDTAB
  0
TABLE
  2
DIMSTYLE
  5
A
330
0
100
AcDbSymbolTable
 70
     1
100
AcDbDimStyleTable
 71
     0
  0
DIMSTYLE
105
27
330
A
100
AcDbSymbolTableRecord
100
AcDbDimStyleTableRecord
  2
ISO-25
 70
     0
 41
2.5
 42
0.625
 43
3.75
 44
1.25
 73
     0
 74
     0
 77
     1
 78
     8
140
2.5
141
2.5
143
0.03937007874016
147
0.625
171
     3
172
     1
271
     2
272
     2
274
     3
278
    44
283
     0
284
     8
340
11
  0
ENDTAB
  0
TABLE
  2
BLOCK_RECORD
  5
1
330
0
100
AcDbSymbolTable
 70
     7
  0
BLOCK_RECORD
  5
1F
102
{ACAD_XDICTIONARY
360
1CE
102
}
330
1
100
AcDbSymbolTableRecord
100
AcDbBlockTableRecord
  2
*Model_Space
340
22
  0
BLOCK_RECORD
  5
D2
102
{ACAD_XDICTIONARY
360
C0A3
102
}
330
1
100
AcDbSymbolTableRecord
100
AcDbBlockTableRecord
  2
*Paper_Space
340
D3
  0
BLOCK_RECORD
  5
D6
102
{ACAD_XDICTIONARY
360
C0A5
102
}
330
1
100
AcDbSymbolTableRecord
100
AcDbBlockTableRecord
  2
*Paper_Space0
340
D7
  0
BLOCK_RECORD
  5
BEC1
330
1
100
AcDbSymbolTableRecord
100
AcDbBlockTableRecord
  2
PBWS73-Front
340
0
102
{BLKREFS
331
C099
102
}
  0
BLOCK_RECORD
  5
BF00
330
1
100
AcDbSymbolTableRecord
100
AcDbBlockTableRecord
  2
PBWS73-Left
340
0
102
{BLKREFS
331
C09A
102
}
  0
BLOCK_RECORD
  5
BF3A
330
1
100
AcDbSymbolTableRecord
100
AcDbBlockTableRecord
  2
PBWS73-Right
340
0
102
{BLKREFS
331
C09B
102
}
  0
BLOCK_RECORD
  5
BF74
330
1
100
AcDbSymbolTableRecord
100
AcDbBlockTableRecord
  2
PBWS73-Top
340
0
102
{BLKREFS
331
C09C
102
}
  0
BLOCK_RECORD
  5
BFB5
330
1
100
AcDbSymbolTableRecord
100
AcDbBlockTableRecord
  2
PBWS73-Bottom
340
0
102
{BLKREFS
331
C09D
102
}
  0
BLOCK_RECORD
  5
BFE0
330
1
100
AcDbSymbolTableRecord
100
AcDbBlockTableRecord
  2
PBWS73-ISO
340
0
102
{BLKREFS
331
C09E
102
}
  0
ENDTAB
  0
ENDSEC
  0
SECTION
  2
BLOCKS
  0
BLOCK
  5
20
330
1F
100
AcDbEntity
  8
0
100
AcDbBlockBegin
  2
*Model_Space
 70
     0
 10
0.0
 20
0.0
 30
0.0
  3
*Model_Space
  1

  0
ENDBLK
  5
21
330
1F
100
AcDbEntity
  8
0
100
AcDbBlockEnd
  0
BLOCK
  5
D4
330
D2
100
AcDbEntity
 67
     1
  8
0
100
AcDbBlockBegin
  2
*Paper_Space
 70
     0
 10
0.0
 20
0.0
 30
0.0
  3
*Paper_Space
  1

  0
ENDBLK
  5
D5
330
D2
100
AcDbEntity
 67
     1
  8
0
100
AcDbBlockEnd
  0
BLOCK
  5
D8
330
D6
100
AcDbEntity
 67
     1
  8
0
100
AcDbBlockBegin
  2
*Paper_Space0
 70
     0
 10
0.0
 20
0.0
 30
0.0
  3
*Paper_Space0
  1

  0
ENDBLK
  5
D9
330
D6
100
AcDbEntity
 67
     1
  8
0
100
AcDbBlockEnd
  0
BLOCK
  5
BEC2
330
BEC1
100
AcDbEntity
  8
0
100
AcDbBlockBegin
  2
PBWS73-Front
 70
     0
 10
0.0
 20
0.0
 30
0.0
  3
PBWS73-Front
  1

  0
LINE
  5
BEC4
330
BEC1
100
AcDbEntity
  8
0
100
AcDbLine
 10
18.30651650629826
 20
0.0
 30
0.0
 11
18.30699894281632
 21
0.0
 31
0.0
  0
LINE
  5
BEC5
330
BEC1
100
AcDbEntity
  8
0
100
AcDbLine
 10
3.276516506298177
 20
-2.999999999999992
 30
0.0
 11
3.27651650629817
 21
-5.999999999999998
 31
0.0
  0
LINE
  5
BEC6
330
BEC1
100
AcDbEntity
  8
0
100
AcDbLine
 10
18.30699894281647
 20
-5.999999999999944
 30
0.0
 11
18.30699894281632
 21
0.0
 31
0.0
  0
LINE
  5
BEC7
330
BEC1
100
AcDbEntity
  8
0
100
AcDbLine
 10
-8.723483493701767
 20
-197.9370000000001
 30
0.0
 11
-8.723483493701829
 21
-50.0
 31
0.0
  0
LINE
  5
BEC8
330
BEC1
100
AcDbEntity
  8
0
100
AcDbLine
 10
3.276516506298261
 20
-197.9370000000002
 30
0.0
 11
-8.723483493701767
 21
-197.9370000000001
 31
0.0
  0
LINE
  5
BEC9
330
BEC1
100
AcDbEntity
  8
0
100
AcDbLine
 10
-3.541502978362323
 20
-61.4393398282202
 30
0.0
 11
1.408244489943499
 21
-66.38908729652603
 31
0.0
  0
ARC
  5
BECA
330
BEC1
100
AcDbEntity
  8
0
100
AcDbCircle
 10
0.34758431816369
 20
-67.44974746830584
 30
0.0
 40
1.499999999999995
100
AcDbArc
 50
225.000000000001
 51
45.00000000000008
  0
LINE
  5
BECB
330
BEC1
100
AcDbEntity
  8
0
100
AcDbLine
 10
-0.71307585361612
 20
-68.51040764008569
 30
0.0
 11
-5.662823321921971
 21
-63.56066017177984
 31
0.0
  0
ARC
  5
BECC
330
BEC1
100
AcDbEntity
  8
0
100
AcDbCircle
 10
-4.602163150142147
 20
-62.5
 30
0.0
 40
1.499999999999986
100
AcDbArc
 50
44.99999999999936
 51
225.0
  0
LINE
  5
BECD
330
BEC1
100
AcDbEntity
  8
0
100
AcDbLine
 10
-3.541502978362332
 20
-81.43933982822019
 30
0.0
 11
1.408244489943491
 21
-86.38908729652605
 31
0.0
  0
ARC
  5
BECE
330
BEC1
100
AcDbEntity
  8
0
100
AcDbCircle
 10
0.3475843181637111
 20
-87.44974746830585
 30
0.0
 40
1.499999999999995
100
AcDbArc
 50
224.9999999999984
 51
45.00000000000103
  0
LINE
  5
BECF
330
BEC1
100
AcDbEntity
  8
0
100
AcDbLine
 10
-0.7130758536161272
 20
-88.51040764008565
 30
0.0
 11
-5.662823321921969
 21
-83.56066017177983
 31
0.0
  0
ARC
  5
BED0
330
BEC1
100
AcDbEntity
  8
0
100
AcDbCircle
 10
-4.602163150142154
 20
-82.50000000000003
 30
0.0
 40
1.499999999999986
100
AcDbArc
 50
45.00000000000031
 51
225.0000000000003
  0
LINE
  5
BED1
330
BEC1
100
AcDbEntity
  8
0
100
AcDbLine
 10
-3.541502978362319
 20
-101.4393398282202
 30
0.0
 11
1.408244489943523
 21
-106.389087296526
 31
0.0
  0
ARC
  5
BED2
330
BEC1
100
AcDbEntity
  8
0
100
AcDbCircle
 10
0.3475843181637144
 20
-107.4497474683059
 30
0.0
 40
1.499999999999995
100
AcDbArc
 50
224.9999999999992
 51
45.00000000000103
  0
LINE
  5
BED3
330
BEC1
100
AcDbEntity
  8
0
100
AcDbLine
 10
-0.713075853616124
 20
-108.5104076400857
 30
0.0
 11
-5.662823321921939
 21
-103.5606601717798
 31
0.0
  0
ARC
  5
BED4
330
BEC1
100
AcDbEntity
  8
0
100
AcDbCircle
 10
-4.602163150142148
 20
-102.5000000000001
 30
0.0
 40
1.499999999999986
100
AcDbArc
 50
45.00000000000036
 51
225.0000000000003
  0
LINE
  5
BED5
330
BEC1
100
AcDbEntity
  8
0
100
AcDbLine
 10
-3.541502978362311
 20
-121.4393398282202
 30
0.0
 11
1.408244489943522
 21
-126.389087296526
 31
0.0
  0
ARC
  5
BED6
330
BEC1
100
AcDbEntity
  8
0
100
AcDbCircle
 10
0.3475843181637233
 20
-127.4497474683059
 30
0.0
 40
1.499999999999995
100
AcDbArc
 50
225.0000000000003
 51
45.00000000000103
  0
LINE
  5
BED7
330
BEC1
100
AcDbEntity
  8
0
100
AcDbLine
 10
-0.7130758536160828
 20
-128.5104076400857
 30
0.0
 11
-5.662823321921949
 21
-123.5606601717798
 31
0.0
  0
ARC
  5
BED8
330
BEC1
100
AcDbEntity
  8
0
100
AcDbCircle
 10
-4.602163150142126
 20
-122.5
 30
0.0
 40
1.499999999999986
100
AcDbArc
 50
45.00000000000052
 51
224.9999999999994
  0
LINE
  5
BED9
330
BEC1
100
AcDbEntity
  8
0
100
AcDbLine
 10
-3.541502978362309
 20
-141.4393398282203
 30
0.0
 11
1.408244489943515
 21
-146.389087296526
 31
0.0
  0
ARC
  5
BEDA
330
BEC1
100
AcDbEntity
  8
0
100
AcDbCircle
 10
0.3475843181637377
 20
-147.4497474683059
 30
0.0
 40
1.499999999999995
100
AcDbArc
 50
225.0000000000002
 51
45.00000000000103
  0
LINE
  5
BEDB
330
BEC1
100
AcDbEntity
  8
0
100
AcDbLine
 10
-0.7130758536161006
 20
-148.5104076400857
 30
0.0
 11
-5.662823321921946
 21
-143.5606601717799
 31
0.0
  0
ARC
  5
BEDC
330
BEC1
100
AcDbEntity
  8
0
100
AcDbCircle
 10
-4.602163150142125
 20
-142.5000000000001
 30
0.0
 40
1.499999999999986
100
AcDbArc
 50
45.00000000000045
 51
224.9999999999985
  0
LINE
  5
BEDD
330
BEC1
100
AcDbEntity
  8
0
100
AcDbLine
 10
-3.541502978362298
 20
-161.4393398282203
 30
0.0
 11
1.408244489943551
 21
-166.3890872965261
 31
0.0
  0
ARC
  5
BEDE
330
BEC1
100
AcDbEntity
  8
0
100
AcDbCircle
 10
0.3475843181637566
 20
-167.4497474683059
 30
0.0
 40
1.499999999999995
100
AcDbArc
 50
224.9999999999989
 51
45.00000000000287
  0
LINE
  5
BEDF
330
BEC1
100
AcDbEntity
  8
0
100
AcDbLine
 10
-0.713075853616084
 20
-168.5104076400857
 30
0.0
 11
-5.662823321921925
 21
-163.5606601717799
 31
0.0
  0
ARC
  5
BEE0
330
BEC1
100
AcDbEntity
  8
0
100
AcDbCircle
 10
-4.602163150142114
 20
-162.5000000000001
 30
0.0
 40
1.499999999999986
100
AcDbArc
 50
45.00000000000123
 51
224.9999999999993
  0
LINE
  5
BEE1
330
BEC1
100
AcDbEntity
  8
0
100
AcDbLine
 10
-3.54150297836226
 20
-181.4393398282203
 30
0.0
 11
1.408244489943545
 21
-186.3890872965261
 31
0.0
  0
ARC
  5
BEE2
330
BEC1
100
AcDbEntity
  8
0
100
AcDbCircle
 10
0.3475843181637466
 20
-187.4497474683058
 30
0.0
 40
1.499999999999995
100
AcDbArc
 50
225.000000000001
 51
44.99999999999912
  0
LINE
  5
BEE3
330
BEC1
100
AcDbEntity
  8
0
100
AcDbLine
 10
-0.7130758536160962
 20
-188.5104076400857
 30
0.0
 11
-5.662823321921919
 21
-183.5606601717799
 31
0.0
  0
ARC
  5
BEE4
330
BEC1
100
AcDbEntity
  8
0
100
AcDbCircle
 10
-4.602163150142109
 20
-182.5000000000001
 30
0.0
 40
1.499999999999986
100
AcDbArc
 50
44.99999999999802
 51
224.9999999999995
  0
LINE
  5
BEE5
330
BEC1
100
AcDbEntity
  8
0
100
AcDbLine
 10
-20.28148349370186
 20
-6.000000000000007
 30
0.0
 11
-8.723483493701829
 21
-50.0
 31
0.0
  0
LINE
  5
BEE6
330
BEC1
100
AcDbEntity
  8
0
100
AcDbLine
 10
-20.28148349370185
 20
-6.000000000000007
 30
0.0
 11
-20.28148349370184
 21
-3.000000000000028
 31
0.0
  0
LINE
  5
BEE7
330
BEC1
100
AcDbEntity
  8
0
100
AcDbLine
 10
9.276516506298296
 20
-40.37802623350061
 30
0.0
 11
18.30699894281646
 21
-5.999999999999943
 31
0.0
  0
ARC
  5
BEE8
330
BEC1
100
AcDbEntity
  8
0
100
AcDbCircle
 10
0.5569989428157774
 20
58.75000000000014
 30
0.0
 40
2.500000000000003
100
AcDbArc
 50
128.1481142121905
 51
231.8518857878168
  0
CIRCLE
  5
BEE9
330
BEC1
100
AcDbEntity
  8
0
100
AcDbCircle
 10
-2.531483493701875
 20
58.74999999999996
 30
0.0
 40
2.5
  0
CIRCLE
  5
BEEA
330
BEC1
100
AcDbEntity
  8
0
100
AcDbCircle
 10
-12.28148349370184
 20
39.99999999999992
 30
0.0
 40
2.5
  0
CIRCLE
  5
BEEB
330
BEC1
100
AcDbEntity
  8
0
100
AcDbCircle
 10
9.306516506298192
 20
76.49999999999997
 30
0.0
 40
4.25
  0
LINE
  5
BEEC
330
BEC1
100
AcDbEntity
  8
0
100
AcDbLine
 10
18.30651650629827
 20
-3.000000000000029
 30
0.0
 11
-20.28148349370181
 21
-3.000000000000033
 31
0.0
  0
LINE
  5
BEED
330
BEC1
100
AcDbEntity
  8
0
100
AcDbLine
 10
18.30699894281574
 20
2.999999999999913
 30
0.0
 11
18.3069989428158
 21
0.0
 31
0.0
  0
LINE
  5
BEEE
330
BEC1
100
AcDbEntity
  8
0
100
AcDbLine
 10
-20.28148349370182
 20
2.999999999999825
 30
0.0
 11
-20.28148349370181
 21
-3.000000000000086
 31
0.0
  0
LINE
  5
BEEF
330
BEC1
100
AcDbEntity
  8
0
100
AcDbLine
 10
18.30651650629827
 20
-3.000000000000085
 30
0.0
 11
18.30651650629826
 21
2.999999999999957
 31
0.0
  0
LINE
  5
BEF0
330
BEC1
100
AcDbEntity
  8
0
100
AcDbLine
 10
13.3069989428158
 20
85.50000000000011
 30
0.0
 11
18.30699894281577
 21
80.50000000000011
 31
0.0
  0
LINE
  5
BEF1
330
BEC1
100
AcDbEntity
  8
0
100
AcDbLine
 10
13.30651650629811
 20
85.49999999999997
 30
0.0
 11
18.30651650629799
 21
80.50000000000004
 31
0.0
  0
LINE
  5
BEF2
330
BEC1
100
AcDbEntity
  8
0
100
AcDbLine
 10
-20.28148349370191
 20
80.49999999999995
 30
0.0
 11
-15.2814834937019
 21
85.49999999999995
 31
0.0
  0
LINE
  5
BEF3
330
BEC1
100
AcDbEntity
  8
0
100
AcDbLine
 10
18.30699894281577
 20
80.50000000000011
 30
0.0
 11
18.30699894281573
 21
2.999999999999918
 31
0.0
  0
LINE
  5
BEF4
330
BEC1
100
AcDbEntity
  8
0
100
AcDbLine
 10
13.3069989428158
 20
85.50000000000011
 30
0.0
 11
13.30651650629808
 21
85.50000000000011
 31
0.0
  0
LINE
  5
BEF5
330
BEC1
100
AcDbEntity
  8
0
100
AcDbLine
 10
-15.2814834937019
 20
85.49999999999995
 30
0.0
 11
13.30651650629811
 21
85.49999999999997
 31
0.0
  0
LINE
  5
BEF6
330
BEC1
100
AcDbEntity
  8
0
100
AcDbLine
 10
-20.28148349370179
 20
2.999999999999825
 30
0.0
 11
-20.28148349370191
 21
80.49999999999995
 31
0.0
  0
LINE
  5
BEF7
330
BEC1
100
AcDbEntity
  8
0
100
AcDbLine
 10
18.30651650629799
 20
80.50000000000004
 30
0.0
 11
18.30651650629824
 21
2.999999999999953
 31
0.0
  0
SPLINE
  5
BEF8
330
BEC1
100
AcDbEntity
  8
0
100
AcDbSpline
210
0.0
220
0.0
230
1.0
 70
     8
 71
     3
 72
     8
 73
     4
 74
     0
 42
0.000000001
 43
0.0000000001
 40
-0.7853981633974483
 40
-0.7853981633974483
 40
-0.7853981633974483
 40
-0.7853981633974483
 40
0.4300566693912189
 40
0.4300566693912189
 40
0.4300566693912189
 40
0.4300566693912189
 10
5.321844428310138
 20
-5.999999999999791
 30
0.0
 10
5.321844428310138
 20
-6.607727416394125
 30
0.0
 10
5.10281681262665
 20
-7.194170623525288
 30
0.0
 10
4.729484267180978
 20
-7.406279775322216
 30
0.0
  0
SPLINE
  5
BEF9
330
BEC1
100
AcDbEntity
  8
0
100
AcDbSpline
210
0.0
220
0.0
230
1.0
 70
     8
 71
     3
 72
    14
 73
    10
 74
     0
 42
0.000000001
 43
0.0000000001
 40
-0.785398163397379
 40
-0.785398163397379
 40
-0.785398163397379
 40
-0.785398163397379
 40
0.3160919271552699
 40
0.3160919271552699
 40
0.3160919271552699
 40
1.299764733775543
 40
1.299764733775543
 40
1.299764733775543
 40
2.35619449019219
 40
2.35619449019219
 40
2.35619449019219
 40
2.35619449019219
 10
3.276516506297776
 20
-5.999999999999897
 30
0.0
 10
3.276516506297833
 20
-6.550745045276222
 30
0.0
 10
3.779084263782012
 20
-7.088739243414073
 30
0.0
 10
4.500568670146034
 20
-7.337823404552485
 30
0.0
 10
5.14488185737115
 20
-7.560265093291369
 30
0.0
 10
5.917324802814838
 20
-7.547882186586322
 30
0.0
 10
6.461771453089263
 20
-7.305906800767719
 30
0.0
 10
7.046487873285379
 20
-7.046033806232604
 30
0.0
 10
7.367172350321875
 20
-6.528214878208363
 30
0.0
 10
7.367172350321967
 20
-6.000000000000039
 30
0.0
  0
LINE
  5
BEFA
330
BEC1
100
AcDbEntity
  8
0
100
AcDbLine
 10
7.367172350322299
 20
-5.999999999999791
 30
0.0
 11
7.367172350322298
 21
-3.000000000000036
 31
0.0
  0
LINE
  5
BEFB
330
BEC1
100
AcDbEntity
  8
0
100
AcDbLine
 10
5.321844428310247
 20
-5.999999999999791
 30
0.0
 11
5.321844428310246
 21
-3.000000000000037
 31
0.0
  0
LINE
  5
BEFC
330
BEC1
100
AcDbEntity
  8
0
100
AcDbLine
 10
-8.72348349370177
 20
-197.9370000000001
 30
0.0
 11
-11.25100105718342
 21
-197.9370000000001
 31
0.0
  0
LINE
  5
BEFD
330
BEC1
100
AcDbEntity
  8
0
100
AcDbLine
 10
9.276516506298261
 20
-197.9370000000003
 30
0.0
 11
3.27651650629826
 21
-197.9370000000003
 31
0.0
  0
LINE
  5
BEFE
330
BEC1
100
AcDbEntity
  8
0
100
AcDbLine
 10
-11.25100105718343
 20
-197.9370000000001
 30
0.0
 11
-11.25100105718351
 21
-40.37802623350117
 31
0.0
  0
LINE
  5
BEFF
330
BEC1
100
AcDbEntity
  8
0
100
AcDbLine
 10
9.276516506298332
 20
-197.9370000000003
 30
0.0
 11
9.276516506298253
 21
-3.000000000000042
 31
0.0
  0
ENDBLK
  5
BEC3
330
BEC1
100
AcDbEntity
  8
0
100
AcDbBlockEnd
  0
BLOCK
  5
BF01
330
BF00
100
AcDbEntity
  8
0
100
AcDbBlockBegin
  2
PBWS73-Left
 70
     0
 10
0.0
 20
0.0
 30
0.0
  3
PBWS73-Left
  1

  0
ARC
  5
BF03
330
BF00
100
AcDbEntity
  8
0
100
AcDbCircle
 10
-9.536272079978472
 20
-5.999999999999943
 30
0.0
 40
3.000000000000021
100
AcDbArc
 50
0.0
 51
90.00000000000017
  0
ARC
  5
BF04
330
BF00
100
AcDbEntity
  8
0
100
AcDbCircle
 10
-9.536272079978472
 20
-5.999999999999943
 30
0.0
 40
6.000000000000023
100
AcDbArc
 50
39.78608288672445
 51
89.99999999999998
  0
LINE
  5
BF05
330
BF00
100
AcDbEntity
  8
0
100
AcDbLine
 10
-6.53627207997847
 20
-5.999999999999952
 30
0.0
 11
-6.53627207997852
 21
-197.9370000000001
 31
0.0
  0
LINE
  5
BF06
330
BF00
100
AcDbEntity
  8
0
100
AcDbLine
 10
-17.25427207997814
 20
0.0
 30
0.0
 11
-32.51299894247817
 21
0.0
 31
0.0
  0
LINE
  5
BF07
330
BF00
100
AcDbEntity
  8
0
100
AcDbLine
 10
-32.51299894247816
 20
-2.999999999999929
 30
0.0
 11
-17.25427207997813
 21
-2.999999999999922
 31
0.0
  0
LINE
  5
BF08
330
BF00
100
AcDbEntity
  8
0
100
AcDbLine
 10
-12.25427207997824
 20
0.0
 30
0.0
 11
-17.25427207997814
 21
0.0
 31
0.0
  0
LINE
  5
BF09
330
BF00
100
AcDbEntity
  8
0
100
AcDbLine
 10
-17.25427207997814
 20
0.0
 30
0.0
 11
-17.25427207997813
 21
-2.999999999999922
 31
0.0
  0
LINE
  5
BF0A
330
BF00
100
AcDbEntity
  8
0
100
AcDbLine
 10
-17.25427207997813
 20
-2.999999999999922
 30
0.0
 11
-12.25427207997824
 21
-2.999999999999918
 31
0.0
  0
LINE
  5
BF0B
330
BF00
100
AcDbEntity
  8
0
100
AcDbLine
 10
-12.25427207997824
 20
-2.999999999999918
 30
0.0
 11
-12.25427207997824
 21
0.0
 31
0.0
  0
LINE
  5
BF0C
330
BF00
100
AcDbEntity
  8
0
100
AcDbLine
 10
-10.75427207997848
 20
0.0
 30
0.0
 11
-12.25427207997845
 21
0.0
 31
0.0
  0
LINE
  5
BF0D
330
BF00
100
AcDbEntity
  8
0
100
AcDbLine
 10
-12.25427207997845
 20
-2.99999999999992
 30
0.0
 11
-10.75427207997848
 21
-2.999999999999922
 31
0.0
  0
LINE
  5
BF0E
330
BF00
100
AcDbEntity
  8
0
100
AcDbLine
 10
-9.536272079978472
 20
0.0
 30
0.0
 11
-10.75427207997848
 21
0.0
 31
0.0
  0
LINE
  5
BF0F
330
BF00
100
AcDbEntity
  8
0
100
AcDbLine
 10
-10.75427207997848
 20
-2.999999999999918
 30
0.0
 11
-9.536272079978481
 21
-2.999999999999922
 31
0.0
  0
LINE
  5
BF10
330
BF00
100
AcDbEntity
  8
0
100
AcDbLine
 10
34.48700105732399
 20
0.0
 30
0.0
 11
11.51027419482396
 21
0.0
 31
0.0
  0
ARC
  5
BF11
330
BF00
100
AcDbEntity
  8
0
100
AcDbCircle
 10
11.51027419482397
 20
-6.000000000000014
 30
0.0
 40
5.999999999999983
100
AcDbArc
 50
90.00000000000017
 51
180.0
  0
ARC
  5
BF12
330
BF00
100
AcDbEntity
  8
0
100
AcDbCircle
 10
11.51027419482395
 20
-6.000000000000014
 30
0.0
 40
2.999999999999985
100
AcDbArc
 50
89.99999999999975
 51
180.0
  0
LINE
  5
BF13
330
BF00
100
AcDbEntity
  8
0
100
AcDbLine
 10
11.51027419482397
 20
-3.000000000000042
 30
0.0
 11
34.48700105732398
 21
-3.000000000000033
 31
0.0
  0
LINE
  5
BF14
330
BF00
100
AcDbEntity
  8
0
100
AcDbLine
 10
8.510274194823919
 20
-197.9370000000001
 30
0.0
 11
8.510274194823916
 21
-50.0
 31
0.0
  0
LINE
  5
BF15
330
BF00
100
AcDbEntity
  8
0
100
AcDbLine
 10
5.510274194823894
 20
-50.0
 30
0.0
 11
5.510274194823909
 21
-197.9370000000001
 31
0.0
  0
LINE
  5
BF16
330
BF00
100
AcDbEntity
  8
0
100
AcDbLine
 10
5.510274194823909
 20
-197.9370000000001
 30
0.0
 11
8.510274194823919
 21
-197.9370000000001
 31
0.0
  0
LINE
  5
BF17
330
BF00
100
AcDbEntity
  8
0
100
AcDbLine
 10
8.51027419482396
 20
-6.000000000000007
 30
0.0
 11
8.510274194823916
 21
-50.0
 31
0.0
  0
LINE
  5
BF18
330
BF00
100
AcDbEntity
  8
0
100
AcDbLine
 10
5.510274194823894
 20
-50.0
 30
0.0
 11
5.510274194823949
 21
-5.999999999999996
 31
0.0
  0
LINE
  5
BF19
330
BF00
100
AcDbEntity
  8
0
100
AcDbLine
 10
5.510274194823949
 20
-5.999999999999998
 30
0.0
 11
8.51027419482396
 21
-6.000000000000007
 31
0.0
  0
LINE
  5
BF1A
330
BF00
100
AcDbEntity
  8
0
100
AcDbLine
 10
8.510274194823916
 20
-50.0
 30
0.0
 11
5.510274194823894
 21
-50.0
 31
0.0
  0
LINE
  5
BF1B
330
BF00
100
AcDbEntity
  8
0
100
AcDbLine
 10
5.46372792002157
 20
0.0
 30
0.0
 11
6.899640295498533
 21
0.0
 31
0.0
  0
LINE
  5
BF1C
330
BF00
100
AcDbEntity
  8
0
100
AcDbLine
 10
-4.925638180653065
 20
-5.999999999999962
 30
0.0
 11
-4.925638180653074
 21
0.0
 31
0.0
  0
LINE
  5
BF1D
330
BF00
100
AcDbEntity
  8
0
100
AcDbLine
 10
6.899640295498526
 20
-2.160461610246509
 30
0.0
 11
6.899640295498533
 21
0.0
 31
0.0
  0
LINE
  5
BF1E
330
BF00
100
AcDbEntity
  8
0
100
AcDbLine
 10
5.46372792002156
 20
0.0
 30
0.0
 11
-4.925638180653072
 21
0.0
 31
0.0
  0
LINE
  5
BF1F
330
BF00
100
AcDbEntity
  8
0
100
AcDbLine
 10
-35.51299894247853
 20
80.50000000000018
 30
0.0
 11
-35.51299894247868
 21
85.50000000000018
 31
0.0
  0
LINE
  5
BF20
330
BF00
100
AcDbEntity
  8
0
100
AcDbLine
 10
40.48700105732397
 20
85.49999999999995
 30
0.0
 11
37.48700105732396
 21
85.49999999999997
 31
0.0
  0
LINE
  5
BF21
330
BF00
100
AcDbEntity
  8
0
100
AcDbLine
 10
37.48700105732396
 20
85.49999999999997
 30
0.0
 11
37.48700105732408
 21
80.4999999999999
 31
0.0
  0
LINE
  5
BF22
330
BF00
100
AcDbEntity
  8
0
100
AcDbLine
 10
40.48700105732399
 20
80.49999999999995
 30
0.0
 11
40.48700105732397
 21
85.49999999999995
 31
0.0
  0
LINE
  5
BF23
330
BF00
100
AcDbEntity
  8
0
100
AcDbLine
 10
37.48700105732408
 20
80.4999999999999
 30
0.0
 11
40.48700105732399
 21
80.49999999999995
 31
0.0
  0
LINE
  5
BF24
330
BF00
100
AcDbEntity
  8
0
100
AcDbLine
 10
-38.51299894247868
 20
85.50000000000014
 30
0.0
 11
-38.51299894247854
 21
80.50000000000014
 31
0.0
  0
LINE
  5
BF25
330
BF00
100
AcDbEntity
  8
0
100
AcDbLine
 10
-38.51299894247854
 20
80.50000000000014
 30
0.0
 11
-35.51299894247853
 21
80.50000000000018
 31
0.0
  0
LINE
  5
BF26
330
BF00
100
AcDbEntity
  8
0
100
AcDbLine
 10
-35.51299894247868
 20
85.50000000000018
 30
0.0
 11
-38.51299894247868
 21
85.50000000000014
 31
0.0
  0
LINE
  5
BF27
330
BF00
100
AcDbEntity
  8
0
100
AcDbLine
 10
-35.51299894247853
 20
80.50000000000018
 30
0.0
 11
-35.51299894247824
 21
2.999999999999927
 31
0.0
  0
LINE
  5
BF28
330
BF00
100
AcDbEntity
  8
0
100
AcDbLine
 10
37.48700105732408
 20
80.4999999999999
 30
0.0
 11
37.48700105732401
 21
2.999999999999811
 31
0.0
  0
LINE
  5
BF29
330
BF00
100
AcDbEntity
  8
0
100
AcDbLine
 10
40.487001057324
 20
2.999999999999825
 30
0.0
 11
40.48700105732399
 21
80.49999999999995
 31
0.0
  0
LINE
  5
BF2A
330
BF00
100
AcDbEntity
  8
0
100
AcDbLine
 10
-38.51299894247854
 20
80.50000000000014
 30
0.0
 11
-38.51299894247823
 21
2.999999999999918
 31
0.0
  0
ARC
  5
BF2B
330
BF00
100
AcDbEntity
  8
0
100
AcDbCircle
 10
-32.51299894247825
 20
2.999999999999927
 30
0.0
 40
5.999999999999975
100
AcDbArc
 50
180.0
 51
270.0000000000009
  0
ARC
  5
BF2C
330
BF00
100
AcDbEntity
  8
0
100
AcDbCircle
 10
-32.51299894247826
 20
2.999999999999927
 30
0.0
 40
2.999999999999971
100
AcDbArc
 50
180.0
 51
270.0000000000018
  0
ARC
  5
BF2D
330
BF00
100
AcDbEntity
  8
0
100
AcDbCircle
 10
34.4870010573241
 20
2.999999999999822
 30
0.0
 40
5.999999999999908
100
AcDbArc
 50
269.9999999999989
 51
0.0
  0
ARC
  5
BF2E
330
BF00
100
AcDbEntity
  8
0
100
AcDbCircle
 10
34.4870010573241
 20
2.999999999999822
 30
0.0
 40
2.999999999999916
100
AcDbArc
 50
269.999999999998
 51
0.0
  0
SPLINE
  5
BF2F
330
BF00
100
AcDbEntity
  8
0
100
AcDbSpline
210
0.0
220
0.0
230
1.0
 70
     8
 71
     3
 72
    11
 73
     7
 74
     0
 42
0.000000001
 43
0.0000000001
 40
1.343715047943248
 40
1.343715047943248
 40
1.343715047943248
 40
1.343715047943248
 40
1.56916514439576
 40
1.56916514439576
 40
1.56916514439576
 40
2.356194490192128
 40
2.356194490192128
 40
2.356194490192128
 40
2.356194490192128
 10
5.461260584833976
 20
-7.26981274861211
 30
0.0
 10
5.475114289613501
 20
-7.211311675663042
 30
0.0
 10
5.485452431583479
 20
-7.141967410822377
 30
0.0
 10
5.492045067768672
 20
-7.062388890137389
 30
0.0
 10
5.515059465302979
 20
-6.784586254167612
 30
0.0
 10
5.510274194823939
 20
-6.393514672898332
 30
0.0
 10
5.510274194823939
 20
-6.000000000000147
 30
0.0
  0
SPLINE
  5
BF30
330
BF00
100
AcDbEntity
  8
0
100
AcDbSpline
210
0.0
220
0.0
230
1.0
 70
     8
 71
     3
 72
    14
 73
    10
 74
     0
 42
0.000000001
 43
0.0000000001
 40
-0.7853981633974377
 40
-0.7853981633974377
 40
-0.7853981633974377
 40
-0.7853981633974377
 40
0.3160919271552167
 40
0.3160919271552167
 40
0.3160919271552167
 40
1.299764733775491
 40
1.299764733775491
 40
1.299764733775491
 40
2.3561944901923
 40
2.3561944901923
 40
2.3561944901923
 40
2.3561944901923
 10
-6.536272079978492
 20
-5.99999999999996
 30
0.0
 10
-6.536272079978492
 20
-6.550745045276288
 30
0.0
 10
-6.560437653343659
 20
-7.088739243414181
 30
0.0
 10
-6.410086539099438
 20
-7.337823404552619
 30
0.0
 10
-6.275817239905936
 20
-7.560265093291525
 30
0.0
 10
-5.962032630249927
 20
-7.547882186586508
 30
0.0
 10
-5.62096980196163
 20
-7.305906800767925
 30
0.0
 10
-5.254680403508713
 20
-7.046033806232793
 30
0.0
 10
-4.92563818065305
 20
-6.528214878208439
 30
0.0
 10
-4.925638180653031
 20
-6.000000000000033
 30
0.0
  0
LINE
  5
BF31
330
BF00
100
AcDbEntity
  8
0
100
AcDbLine
 10
5.46372792002152
 20
-197.9370000000001
 30
0.0
 11
-6.536272079978519
 21
-197.9370000000001
 31
0.0
  0
LINE
  5
BF32
330
BF00
100
AcDbEntity
  8
0
100
AcDbLine
 10
5.46372792002153
 20
-197.9370000000003
 30
0.0
 11
5.510274194823896
 21
-197.9370000000003
 31
0.0
  0
ARC
  5
BF33
330
BF00
100
AcDbEntity
  8
0
100
AcDbCircle
 10
-12.24337886116516
 20
-3.999999999999928
 30
0.0
 40
1.0
100
AcDbArc
 50
44.99999999999993
 51
90.00000000000012
  0
ARC
  5
BF34
330
BF00
100
AcDbEntity
  8
0
100
AcDbCircle
 10
-7.53627207997876
 20
-8.707106781186347
 30
0.0
 40
1.0
100
AcDbArc
 50
0.0
 51
44.99999999999985
  0
ARC
  5
BF35
330
BF00
100
AcDbEntity
  8
0
100
AcDbCircle
 10
14.21738097601048
 20
-4.00000000000002
 30
0.0
 40
1.0
100
AcDbArc
 50
89.99999999999987
 51
134.9999999999999
  0
ARC
  5
BF36
330
BF00
100
AcDbEntity
  8
0
100
AcDbCircle
 10
9.510274194823878
 20
-8.707106781186626
 30
0.0
 40
1.0
100
AcDbArc
 50
134.9999999999999
 51
180.0
  0
LINE
  5
BF37
330
BF00
100
AcDbEntity
  8
0
100
AcDbLine
 10
-6.829165298792206
 20
-7.99999999999979
 30
0.0
 11
-11.53627207997861
 21
-3.29289321881338
 31
0.0
  0
LINE
  5
BF38
330
BF00
100
AcDbEntity
  8
0
100
AcDbLine
 10
8.80316741363733
 20
-8.000000000000079
 30
0.0
 11
13.51027419482393
 21
-3.29289321881347
 31
0.0
  0
LINE
  5
BF39
330
BF00
100
AcDbEntity
  8
0
100
AcDbLine
 10
5.463727920021533
 20
-197.9370000000001
 30
0.0
 11
5.463727920021578
 21
0.0
 31
0.0
  0
ENDBLK
  5
BF02
330
BF00
100
AcDbEntity
  8
0
100
AcDbBlockEnd
  0
BLOCK
  5
BF3B
330
BF3A
100
AcDbEntity
  8
0
100
AcDbBlockBegin
  2
PBWS73-Right
 70
     0
 10
0.0
 20
0.0
 30
0.0
  3
PBWS73-Right
  1

  0
LINE
  5
BF3D
330
BF3A
100
AcDbEntity
  8
0
100
AcDbLine
 10
6.536272079978797
 20
-197.9370000000001
 30
0.0
 11
6.536272079978363
 21
-50.0
 31
0.0
  0
LINE
  5
BF3E
330
BF3A
100
AcDbEntity
  8
0
100
AcDbLine
 10
3.536272079978869
 20
-50.00000000000003
 30
0.0
 11
3.536272079978792
 21
-197.9370000000001
 31
0.0
  0
LINE
  5
BF3F
330
BF3A
100
AcDbEntity
  8
0
100
AcDbLine
 10
3.536272079978792
 20
-197.9370000000001
 30
0.0
 11
6.536272079978797
 21
-197.9370000000001
 31
0.0
  0
LINE
  5
BF40
330
BF3A
100
AcDbEntity
  8
0
100
AcDbLine
 10
6.536272079979028
 20
-5.999999999999944
 30
0.0
 11
6.536272079978363
 21
-50.0
 31
0.0
  0
LINE
  5
BF41
330
BF3A
100
AcDbEntity
  8
0
100
AcDbLine
 10
3.536272079978869
 20
-50.00000000000003
 30
0.0
 11
3.536272079979019
 21
-5.999999999999943
 31
0.0
  0
LINE
  5
BF42
330
BF3A
100
AcDbEntity
  8
0
100
AcDbLine
 10
3.536272079979019
 20
-5.999999999999943
 30
0.0
 11
6.536272079979028
 21
-5.999999999999944
 31
0.0
  0
LINE
  5
BF43
330
BF3A
100
AcDbEntity
  8
0
100
AcDbLine
 10
6.536272079978363
 20
-50.0
 30
0.0
 11
3.536272079978869
 21
-50.00000000000003
 31
0.0
  0
LINE
  5
BF44
330
BF3A
100
AcDbEntity
  8
0
100
AcDbLine
 10
32.51299894247904
 20
0.0
 30
0.0
 11
9.536272079979024
 21
0.0
 31
0.0
  0
ARC
  5
BF45
330
BF3A
100
AcDbEntity
  8
0
100
AcDbCircle
 10
9.536272079979037
 20
-5.999999999999935
 30
0.0
 40
6.000000000000006
100
AcDbArc
 50
90.00000000000007
 51
180.0
  0
ARC
  5
BF46
330
BF3A
100
AcDbEntity
  8
0
100
AcDbCircle
 10
9.536272079979022
 20
-5.999999999999944
 30
0.0
 40
3.000000000000003
100
AcDbArc
 50
89.99999999999992
 51
180.0
  0
LINE
  5
BF47
330
BF3A
100
AcDbEntity
  8
0
100
AcDbLine
 10
9.536272079979028
 20
-2.999999999999931
 30
0.0
 11
32.51299894247904
 21
-2.999999999999917
 31
0.0
  0
ARC
  5
BF48
330
BF3A
100
AcDbEntity
  8
0
100
AcDbCircle
 10
-11.51027419482391
 20
-6.000000000000007
 30
0.0
 40
6.000000000000031
100
AcDbArc
 50
39.78608288672509
 51
89.99999999999998
  0
ARC
  5
BF49
330
BF3A
100
AcDbEntity
  8
0
100
AcDbCircle
 10
-11.5102741948239
 20
-6.000000000000015
 30
0.0
 40
3.000000000000023
100
AcDbArc
 50
0.0
 51
90.00000000000007
  0
LINE
  5
BF4A
330
BF3A
100
AcDbEntity
  8
0
100
AcDbLine
 10
-19.22827419482386
 20
0.0
 30
0.0
 11
-34.48700105732391
 21
0.0
 31
0.0
  0
LINE
  5
BF4B
330
BF3A
100
AcDbEntity
  8
0
100
AcDbLine
 10
-34.48700105732391
 20
-3.000000000000029
 30
0.0
 11
-19.22827419482386
 21
-3.000000000000001
 31
0.0
  0
LINE
  5
BF4C
330
BF3A
100
AcDbEntity
  8
0
100
AcDbLine
 10
-14.22827419482387
 20
0.0
 30
0.0
 11
-19.22827419482386
 21
0.0
 31
0.0
  0
LINE
  5
BF4D
330
BF3A
100
AcDbEntity
  8
0
100
AcDbLine
 10
-19.22827419482386
 20
0.0
 30
0.0
 11
-19.22827419482386
 21
-3.000000000000001
 31
0.0
  0
LINE
  5
BF4E
330
BF3A
100
AcDbEntity
  8
0
100
AcDbLine
 10
-19.22827419482386
 20
-3.000000000000001
 30
0.0
 11
-14.22827419482388
 21
-2.999999999999993
 31
0.0
  0
LINE
  5
BF4F
330
BF3A
100
AcDbEntity
  8
0
100
AcDbLine
 10
-14.22827419482388
 20
-2.999999999999993
 30
0.0
 11
-14.22827419482387
 21
0.0
 31
0.0
  0
LINE
  5
BF50
330
BF3A
100
AcDbEntity
  8
0
100
AcDbLine
 10
-12.7282741948239
 20
0.0
 30
0.0
 11
-14.2282741948239
 21
0.0
 31
0.0
  0
LINE
  5
BF51
330
BF3A
100
AcDbEntity
  8
0
100
AcDbLine
 10
-14.2282741948239
 20
-3.00000000000002
 30
0.0
 11
-12.7282741948239
 21
-3.000000000000028
 31
0.0
  0
LINE
  5
BF52
330
BF3A
100
AcDbEntity
  8
0
100
AcDbLine
 10
-11.51027419482391
 20
0.0
 30
0.0
 11
-12.7282741948239
 21
0.0
 31
0.0
  0
LINE
  5
BF53
330
BF3A
100
AcDbEntity
  8
0
100
AcDbLine
 10
-12.7282741948239
 20
-2.999999999999978
 30
0.0
 11
-11.51027419482391
 21
-2.999999999999989
 31
0.0
  0
LINE
  5
BF54
330
BF3A
100
AcDbEntity
  8
0
100
AcDbLine
 10
-8.510274194823896
 20
-197.9370000000002
 30
0.0
 11
-8.510274194823891
 21
-6.000000000000014
 31
0.0
  0
LINE
  5
BF55
330
BF3A
100
AcDbEntity
  8
0
100
AcDbLine
 10
3.489725805176158
 20
0.0
 30
0.0
 11
-6.899640295498523
 21
0.0
 31
0.0
  0
LINE
  5
BF56
330
BF3A
100
AcDbEntity
  8
0
100
AcDbLine
 10
4.925638180653063
 20
-2.160461610247047
 30
0.0
 11
4.925638180653074
 21
0.0
 31
0.0
  0
LINE
  5
BF57
330
BF3A
100
AcDbEntity
  8
0
100
AcDbLine
 10
3.489725805176202
 20
0.0
 30
0.0
 11
4.925638180653074
 21
0.0
 31
0.0
  0
LINE
  5
BF58
330
BF3A
100
AcDbEntity
  8
0
100
AcDbLine
 10
-6.899640295498525
 20
-5.999999999999791
 30
0.0
 11
-6.899640295498533
 21
0.0
 31
0.0
  0
LINE
  5
BF59
330
BF3A
100
AcDbEntity
  8
0
100
AcDbLine
 10
38.51299894247943
 20
80.50000000000014
 30
0.0
 11
38.51299894247934
 21
85.50000000000011
 31
0.0
  0
LINE
  5
BF5A
330
BF3A
100
AcDbEntity
  8
0
100
AcDbLine
 10
38.51299894247934
 20
85.50000000000011
 30
0.0
 11
35.51299894247934
 21
85.50000000000011
 31
0.0
  0
LINE
  5
BF5B
330
BF3A
100
AcDbEntity
  8
0
100
AcDbLine
 10
35.51299894247934
 20
85.50000000000011
 30
0.0
 11
35.51299894247949
 21
80.50000000000011
 31
0.0
  0
LINE
  5
BF5C
330
BF3A
100
AcDbEntity
  8
0
100
AcDbLine
 10
35.51299894247949
 20
80.50000000000011
 30
0.0
 11
38.51299894247943
 21
80.50000000000014
 31
0.0
  0
LINE
  5
BF5D
330
BF3A
100
AcDbEntity
  8
0
100
AcDbLine
 10
-40.48700105732398
 20
85.49999999999997
 30
0.0
 11
-40.4870010573241
 21
80.50000000000004
 31
0.0
  0
LINE
  5
BF5E
330
BF3A
100
AcDbEntity
  8
0
100
AcDbLine
 10
-40.4870010573241
 20
80.50000000000004
 30
0.0
 11
-37.4870010573241
 21
80.50000000000004
 31
0.0
  0
LINE
  5
BF5F
330
BF3A
100
AcDbEntity
  8
0
100
AcDbLine
 10
-37.4870010573241
 20
80.50000000000004
 30
0.0
 11
-37.48700105732397
 21
85.5
 31
0.0
  0
LINE
  5
BF60
330
BF3A
100
AcDbEntity
  8
0
100
AcDbLine
 10
-37.48700105732397
 20
85.5
 30
0.0
 11
-40.48700105732398
 21
85.49999999999997
 31
0.0
  0
LINE
  5
BF61
330
BF3A
100
AcDbEntity
  8
0
100
AcDbLine
 10
35.51299894247949
 20
80.50000000000011
 30
0.0
 11
35.51299894247911
 21
2.999999999999918
 31
0.0
  0
LINE
  5
BF62
330
BF3A
100
AcDbEntity
  8
0
100
AcDbLine
 10
38.51299894247914
 20
2.999999999999878
 30
0.0
 11
38.51299894247943
 21
80.50000000000014
 31
0.0
  0
LINE
  5
BF63
330
BF3A
100
AcDbEntity
  8
0
100
AcDbLine
 10
-37.4870010573241
 20
80.50000000000004
 30
0.0
 11
-37.48700105732402
 21
2.999999999999953
 31
0.0
  0
LINE
  5
BF64
330
BF3A
100
AcDbEntity
  8
0
100
AcDbLine
 10
-40.4870010573241
 20
80.50000000000004
 30
0.0
 11
-40.48700105732402
 21
2.999999999999953
 31
0.0
  0
ARC
  5
BF65
330
BF3A
100
AcDbEntity
  8
0
100
AcDbCircle
 10
32.51299894247914
 20
2.9999999999999
 30
0.0
 40
5.999999999999986
100
AcDbArc
 50
269.9999999999991
 51
0.0
  0
ARC
  5
BF66
330
BF3A
100
AcDbEntity
  8
0
100
AcDbCircle
 10
32.51299894247914
 20
2.9999999999999
 30
0.0
 40
2.99999999999998
100
AcDbArc
 50
269.9999999999982
 51
0.0
  0
ARC
  5
BF67
330
BF3A
100
AcDbEntity
  8
0
100
AcDbCircle
 10
-34.487001057324
 20
2.999999999999951
 30
0.0
 40
6.000000000000036
100
AcDbArc
 50
180.0
 51
270.0000000000009
  0
ARC
  5
BF68
330
BF3A
100
AcDbEntity
  8
0
100
AcDbCircle
 10
-34.487001057324
 20
2.999999999999951
 30
0.0
 40
3.000000000000024
100
AcDbArc
 50
180.0
 51
270.0000000000017
  0
SPLINE
  5
BF69
330
BF3A
100
AcDbEntity
  8
0
100
AcDbSpline
210
0.0
220
0.0
230
1.0
 70
     8
 71
     3
 72
    14
 73
    10
 74
     0
 42
0.000000001
 43
0.0000000001
 40
-0.785398163397379
 40
-0.785398163397379
 40
-0.785398163397379
 40
-0.785398163397379
 40
0.3160919271552699
 40
0.3160919271552699
 40
0.3160919271552699
 40
1.299764733775543
 40
1.299764733775543
 40
1.299764733775543
 40
2.35619449019219
 40
2.35619449019219
 40
2.35619449019219
 40
2.35619449019219
 10
-8.510274194823875
 20
-5.999999999999897
 30
0.0
 10
-8.510274194823875
 20
-6.550745045276222
 30
0.0
 10
-8.534439768189084
 20
-7.088739243414073
 30
0.0
 10
-8.384088653944912
 20
-7.337823404552485
 30
0.0
 10
-8.249819354751446
 20
-7.560265093291369
 30
0.0
 10
-7.93603474509549
 20
-7.547882186586322
 30
0.0
 10
-7.594971916807241
 20
-7.305906800767719
 30
0.0
 10
-7.228682518354432
 20
-7.046033806232604
 30
0.0
 10
-6.89964029549885
 20
-6.528214878208363
 30
0.0
 10
-6.899640295498768
 20
-6.000000000000039
 30
0.0
  0
SPLINE
  5
BF6A
330
BF3A
100
AcDbEntity
  8
0
100
AcDbSpline
210
0.0
220
0.0
230
1.0
 70
     8
 71
     3
 72
    11
 73
     7
 74
     0
 42
0.000000001
 43
0.0000000001
 40
-0.2270812788508465
 40
-0.2270812788508465
 40
-0.2270812788508465
 40
-0.2270812788508465
 40
-0.0016311823990594
 40
-0.0016311823990594
 40
-0.0016311823990594
 40
0.7853981633974375
 40
0.7853981633974375
 40
0.7853981633974375
 40
0.7853981633974375
 10
3.487258469988614
 20
-7.269812748611627
 30
0.0
 10
3.501112174768076
 20
-7.211311675662672
 30
0.0
 10
3.511450316738011
 20
-7.141967410822189
 30
0.0
 10
3.518042952923186
 20
-7.062388890137452
 30
0.0
 10
3.541057350457502
 20
-6.784586254167609
 30
0.0
 10
3.536272079978467
 20
-6.393514672898209
 30
0.0
 10
3.536272079978466
 20
-5.99999999999996
 30
0.0
  0
LINE
  5
BF6B
330
BF3A
100
AcDbEntity
  8
0
100
AcDbLine
 10
3.489725805176196
 20
-197.9370000000001
 30
0.0
 11
3.536272079978517
 21
-197.9370000000001
 31
0.0
  0
LINE
  5
BF6C
330
BF3A
100
AcDbEntity
  8
0
100
AcDbLine
 10
3.489725805176128
 20
-197.9370000000003
 30
0.0
 11
-8.510274194823898
 21
-197.9370000000003
 31
0.0
  0
ARC
  5
BF6D
330
BF3A
100
AcDbEntity
  8
0
100
AcDbCircle
 10
12.24337886116516
 20
-3.999999999999928
 30
0.0
 40
1.0
100
AcDbArc
 50
89.99999999999987
 51
135.0
  0
ARC
  5
BF6E
330
BF3A
100
AcDbEntity
  8
0
100
AcDbCircle
 10
7.53627207997876
 20
-8.707106781186347
 30
0.0
 40
1.0
100
AcDbArc
 50
135.0000000000001
 51
180.0
  0
ARC
  5
BF6F
330
BF3A
100
AcDbEntity
  8
0
100
AcDbCircle
 10
-14.21738097601048
 20
-4.00000000000002
 30
0.0
 40
1.0
100
AcDbArc
 50
45.0000000000001
 51
90.00000000000012
  0
ARC
  5
BF70
330
BF3A
100
AcDbEntity
  8
0
100
AcDbCircle
 10
-9.510274194823878
 20
-8.707106781186626
 30
0.0
 40
1.0
100
AcDbArc
 50
0.0
 51
45.00000000000003
  0
LINE
  5
BF71
330
BF3A
100
AcDbEntity
  8
0
100
AcDbLine
 10
6.829165298792206
 20
-7.99999999999979
 30
0.0
 11
11.53627207997861
 21
-3.29289321881338
 31
0.0
  0
LINE
  5
BF72
330
BF3A
100
AcDbEntity
  8
0
100
AcDbLine
 10
-8.80316741363733
 20
-8.000000000000079
 30
0.0
 11
-13.51027419482393
 21
-3.29289321881347
 31
0.0
  0
LINE
  5
BF73
330
BF3A
100
AcDbEntity
  8
0
100
AcDbLine
 10
3.489725805176199
 20
-197.9370000000003
 30
0.0
 11
3.489725805176203
 21
0.0
 31
0.0
  0
ENDBLK
  5
BF3C
330
BF3A
100
AcDbEntity
  8
0
100
AcDbBlockEnd
  0
BLOCK
  5
BF75
330
BF74
100
AcDbEntity
  8
0
100
AcDbBlockBegin
  2
PBWS73-Top
 70
     0
 10
0.0
 20
0.0
 30
0.0
  3
PBWS73-Top
  1

  0
LINE
  5
BF77
330
BF74
100
AcDbEntity
  8
0
100
AcDbLine
 10
6.74899894281646
 20
3.536272079978755
 30
0.0
 11
9.699619020069881
 21
3.536272079978823
 31
0.0
  0
LINE
  5
BF78
330
BF74
100
AcDbEntity
  8
0
100
AcDbLine
 10
3.398378865563033
 20
3.536272079978676
 30
0.0
 11
6.748998942816442
 21
3.536272079978755
 31
0.0
  0
LINE
  5
BF79
330
BF74
100
AcDbEntity
  8
0
100
AcDbLine
 10
-8.72348349370182
 20
-5.510274194823875
 30
0.0
 11
-11.67410357095536
 21
-5.510274194823874
 31
0.0
  0
LINE
  5
BF7A
330
BF74
100
AcDbEntity
  8
0
100
AcDbLine
 10
-5.372863416448256
 20
-5.510274194823874
 30
0.0
 11
-8.72348349370182
 21
-5.510274194823875
 31
0.0
  0
LINE
  5
BF7B
330
BF74
100
AcDbEntity
  8
0
100
AcDbLine
 10
-5.251001057183727
 20
9.53627207997847
 30
0.0
 11
-5.251001057183581
 21
3.53627207997845
 31
0.0
  0
LINE
  5
BF7C
330
BF74
100
AcDbEntity
  8
0
100
AcDbLine
 10
-5.251001057183576
 20
3.536272079978473
 30
0.0
 11
1.337311284731873
 21
3.536272079978628
 31
0.0
  0
LINE
  5
BF7D
330
BF74
100
AcDbEntity
  8
0
100
AcDbLine
 10
1.337311284731872
 20
3.536272079978628
 30
0.0
 11
3.398378865563033
 21
3.536272079978672
 31
0.0
  0
LINE
  5
BF7E
330
BF74
100
AcDbEntity
  8
0
100
AcDbLine
 10
3.276516506298184
 20
-11.51027419482391
 30
0.0
 11
3.27651650629817
 21
-5.510274194823874
 31
0.0
  0
LINE
  5
BF7F
330
BF74
100
AcDbEntity
  8
0
100
AcDbLine
 10
3.276516506298189
 20
-5.510274194823897
 30
0.0
 11
-3.311795835617187
 21
-5.510274194823918
 31
0.0
  0
LINE
  5
BF80
330
BF74
100
AcDbEntity
  8
0
100
AcDbLine
 10
-3.311795835617187
 20
-5.510274194823918
 30
0.0
 11
-5.372863416448259
 21
-5.510274194823923
 31
0.0
  0
LINE
  5
BF81
330
BF74
100
AcDbEntity
  8
0
100
AcDbLine
 10
18.30699894281579
 20
32.51299894247904
 30
0.0
 11
18.30699894281632
 21
9.536272079979024
 31
0.0
  0
LINE
  5
BF82
330
BF74
100
AcDbEntity
  8
0
100
AcDbLine
 10
9.699619020069889
 20
3.536272079978812
 30
0.0
 11
18.30699894281646
 21
3.536272079979019
 31
0.0
  0
LINE
  5
BF83
330
BF74
100
AcDbEntity
  8
0
100
AcDbLine
 10
18.30699894281647
 20
3.53627207997903
 30
0.0
 11
18.30699894281632
 21
9.536272079979026
 31
0.0
  0
LINE
  5
BF84
330
BF74
100
AcDbEntity
  8
0
100
AcDbLine
 10
-20.28100105718392
 20
17.25427207997814
 30
0.0
 11
-20.28100105718427
 21
32.51299894247817
 31
0.0
  0
LINE
  5
BF85
330
BF74
100
AcDbEntity
  8
0
100
AcDbLine
 10
-6.75100105718378
 20
12.25427207997844
 30
0.0
 11
-15.2810010571838
 21
12.25427207997824
 31
0.0
  0
LINE
  5
BF86
330
BF74
100
AcDbEntity
  8
0
100
AcDbLine
 10
-15.2810010571838
 20
12.25427207997824
 30
0.0
 11
-20.28100105718392
 21
17.25427207997814
 31
0.0
  0
LINE
  5
BF87
330
BF74
100
AcDbEntity
  8
0
100
AcDbLine
 10
13.3065165062982
 20
-14.22827419482387
 30
0.0
 11
18.30651650629821
 21
-19.22827419482386
 31
0.0
  0
ARC
  5
BF88
330
BF74
100
AcDbEntity
  8
0
100
AcDbCircle
 10
-6.751001057183739
 20
10.75427207997845
 30
0.0
 40
1.500000000000001
100
AcDbArc
 50
0.0
 51
90.00000000000161
  0
ARC
  5
BF89
330
BF74
100
AcDbEntity
  8
0
100
AcDbCircle
 10
4.776516506298184
 20
-12.7282741948239
 30
0.0
 40
1.5
100
AcDbArc
 50
180.0
 51
270.0000000000005
  0
LINE
  5
BF8A
330
BF74
100
AcDbEntity
  8
0
100
AcDbLine
 10
-5.251001057183735
 20
9.536272079978472
 30
0.0
 11
-5.25100105718376
 21
10.75427207997848
 31
0.0
  0
LINE
  5
BF8B
330
BF74
100
AcDbEntity
  8
0
100
AcDbLine
 10
3.276516506298174
 20
-11.51027419482391
 30
0.0
 11
3.276516506298174
 21
-12.7282741948239
 31
0.0
  0
LINE
  5
BF8C
330
BF74
100
AcDbEntity
  8
0
100
AcDbLine
 10
-20.28148349370179
 20
-34.48700105732399
 30
0.0
 11
-20.28148349370184
 21
-11.51027419482396
 31
0.0
  0
LINE
  5
BF8D
330
BF74
100
AcDbEntity
  8
0
100
AcDbLine
 10
-11.67410357095539
 20
-5.510274194823924
 30
0.0
 11
-20.28148349370185
 21
-5.510274194823949
 31
0.0
  0
LINE
  5
BF8E
330
BF74
100
AcDbEntity
  8
0
100
AcDbLine
 10
-20.28148349370185
 20
-5.510274194823987
 30
0.0
 11
-20.28148349370184
 21
-11.51027419482395
 31
0.0
  0
LINE
  5
BF8F
330
BF74
100
AcDbEntity
  8
0
100
AcDbLine
 10
18.30651650629821
 20
-19.22827419482386
 30
0.0
 11
18.30651650629826
 21
-34.48700105732391
 31
0.0
  0
LINE
  5
BF90
330
BF74
100
AcDbEntity
  8
0
100
AcDbLine
 10
4.776516506298195
 20
-14.2282741948239
 30
0.0
 11
13.3065165062982
 21
-14.22827419482387
 31
0.0
  0
ARC
  5
BF91
330
BF74
100
AcDbEntity
  8
0
100
AcDbCircle
 10
3.276516506298169
 20
-2.51027419482388
 30
0.0
 40
3.00000000000001
100
AcDbArc
 50
312.9825802798821
 51
154.0000000000019
  0
LINE
  5
BF92
330
BF74
100
AcDbEntity
  8
0
100
AcDbLine
 10
5.321844428310248
 20
-4.704957245161215
 30
0.0
 11
7.367172350322302
 21
-6.899640295498533
 31
0.0
  0
ARC
  5
BF93
330
BF74
100
AcDbEntity
  8
0
100
AcDbCircle
 10
3.276516506298169
 20
-2.51027419482388
 30
0.0
 40
6.000000000000039
100
AcDbArc
 50
312.9825802798821
 51
154.0000000000016
  0
LINE
  5
BF94
330
BF74
100
AcDbEntity
  8
0
100
AcDbLine
 10
-2.116247771496921
 20
0.1199526859104444
 30
0.0
 11
-2.55461891828599
 21
-0.7788413603887329
 31
0.0
  0
LINE
  5
BF95
330
BF74
100
AcDbEntity
  8
0
100
AcDbLine
 10
0.1417632206115571
 20
-2.093954800755913
 30
0.0
 11
0.580134367400623
 21
-1.195160754456739
 31
0.0
  0
LINE
  5
BF96
330
BF74
100
AcDbEntity
  8
0
100
AcDbLine
 10
-7.296328979195569
 20
2.730955130315763
 30
0.0
 11
-9.341656901207624
 21
4.925638180653074
 31
0.0
  0
ARC
  5
BF97
330
BF74
100
AcDbEntity
  8
0
100
AcDbCircle
 10
-5.251001057183498
 20
0.536272079978458
 30
0.0
 40
2.999999999999998
100
AcDbArc
 50
132.9825802798825
 51
334.0000000000008
  0
ARC
  5
BF98
330
BF74
100
AcDbEntity
  8
0
100
AcDbCircle
 10
-5.251001057183498
 20
0.536272079978458
 30
0.0
 40
6.000000000000017
100
AcDbArc
 50
132.9825802798823
 51
334.000000000001
  0
LINE
  5
BF99
330
BF74
100
AcDbEntity
  8
0
100
AcDbLine
 10
18.30699894281576
 20
38.51299894247943
 30
0.0
 11
13.30699894281574
 21
38.51299894247934
 31
0.0
  0
LINE
  5
BF9A
330
BF74
100
AcDbEntity
  8
0
100
AcDbLine
 10
13.30699894281574
 20
38.51299894247934
 30
0.0
 11
13.3069989428158
 21
35.51299894247934
 31
0.0
  0
LINE
  5
BF9B
330
BF74
100
AcDbEntity
  8
0
100
AcDbLine
 10
13.3069989428158
 20
35.51299894247934
 30
0.0
 11
18.30699894281577
 21
35.51299894247949
 31
0.0
  0
LINE
  5
BF9C
330
BF74
100
AcDbEntity
  8
0
100
AcDbLine
 10
18.30699894281577
 20
35.51299894247949
 30
0.0
 11
18.30699894281576
 21
38.51299894247943
 31
0.0
  0
LINE
  5
BF9D
330
BF74
100
AcDbEntity
  8
0
100
AcDbLine
 10
-20.28100105718435
 20
35.51299894247853
 30
0.0
 11
-15.28100105718427
 21
35.51299894247868
 31
0.0
  0
LINE
  5
BF9E
330
BF74
100
AcDbEntity
  8
0
100
AcDbLine
 10
13.30651650629811
 20
-40.48700105732398
 30
0.0
 11
18.30651650629799
 21
-40.4870010573241
 31
0.0
  0
LINE
  5
BF9F
330
BF74
100
AcDbEntity
  8
0
100
AcDbLine
 10
18.30651650629799
 20
-40.4870010573241
 30
0.0
 11
18.306516506298
 21
-37.4870010573241
 31
0.0
  0
LINE
  5
BFA0
330
BF74
100
AcDbEntity
  8
0
100
AcDbLine
 10
18.306516506298
 20
-37.4870010573241
 30
0.0
 11
13.30651650629808
 21
-37.48700105732397
 31
0.0
  0
LINE
  5
BFA1
330
BF74
100
AcDbEntity
  8
0
100
AcDbLine
 10
13.30651650629808
 20
-37.48700105732397
 30
0.0
 11
13.30651650629811
 21
-40.48700105732398
 31
0.0
  0
LINE
  5
BFA2
330
BF74
100
AcDbEntity
  8
0
100
AcDbLine
 10
-15.2814834937019
 20
-40.48700105732397
 30
0.0
 11
-15.28148349370191
 21
-37.48700105732396
 31
0.0
  0
LINE
  5
BFA3
330
BF74
100
AcDbEntity
  8
0
100
AcDbLine
 10
-15.28148349370191
 20
-37.48700105732396
 30
0.0
 11
-20.28148349370198
 21
-37.48700105732408
 31
0.0
  0
LINE
  5
BFA4
330
BF74
100
AcDbEntity
  8
0
100
AcDbLine
 10
-20.28148349370191
 20
-40.48700105732399
 30
0.0
 11
-15.2814834937019
 21
-40.48700105732397
 31
0.0
  0
LINE
  5
BFA5
330
BF74
100
AcDbEntity
  8
0
100
AcDbLine
 10
-20.28148349370198
 20
-37.48700105732408
 30
0.0
 11
-20.28148349370191
 21
-40.48700105732399
 31
0.0
  0
LINE
  5
BFA6
330
BF74
100
AcDbEntity
  8
0
100
AcDbLine
 10
-15.28100105718434
 20
38.51299894247868
 30
0.0
 11
-20.28100105718444
 21
38.51299894247854
 31
0.0
  0
LINE
  5
BFA7
330
BF74
100
AcDbEntity
  8
0
100
AcDbLine
 10
-20.28100105718444
 20
38.51299894247854
 30
0.0
 11
-20.28100105718435
 21
35.51299894247853
 31
0.0
  0
LINE
  5
BFA8
330
BF74
100
AcDbEntity
  8
0
100
AcDbLine
 10
-15.28100105718427
 20
35.51299894247868
 30
0.0
 11
-15.28100105718434
 21
38.51299894247868
 31
0.0
  0
LINE
  5
BFA9
330
BF74
100
AcDbEntity
  8
0
100
AcDbLine
 10
13.3069989428158
 20
35.51299894247934
 30
0.0
 11
-15.28100105718426
 21
35.51299894247868
 31
0.0
  0
LINE
  5
BFAA
330
BF74
100
AcDbEntity
  8
0
100
AcDbLine
 10
-15.28148349370191
 20
-37.48700105732396
 30
0.0
 11
13.30651650629808
 21
-37.48700105732397
 31
0.0
  0
LINE
  5
BFAB
330
BF74
100
AcDbEntity
  8
0
100
AcDbLine
 10
-15.2814834937019
 20
-40.48700105732397
 30
0.0
 11
13.30651650629811
 21
-40.48700105732398
 31
0.0
  0
LINE
  5
BFAC
330
BF74
100
AcDbEntity
  8
0
100
AcDbLine
 10
13.30699894281574
 20
38.51299894247934
 30
0.0
 11
-15.28100105718434
 21
38.51299894247868
 31
0.0
  0
LINE
  5
BFAD
330
BF74
100
AcDbEntity
  8
0
100
AcDbLine
 10
18.30699894281574
 20
35.51299894247911
 30
0.0
 11
18.3069989428158
 21
32.51299894247904
 31
0.0
  0
LINE
  5
BFAE
330
BF74
100
AcDbEntity
  8
0
100
AcDbLine
 10
-20.28100105718441
 20
35.51299894247823
 30
0.0
 11
-20.28100105718434
 21
32.51299894247817
 31
0.0
  0
LINE
  5
BFAF
330
BF74
100
AcDbEntity
  8
0
100
AcDbLine
 10
-20.28148349370173
 20
-37.48700105732401
 30
0.0
 11
-20.28148349370174
 21
-34.48700105732399
 31
0.0
  0
LINE
  5
BFB0
330
BF74
100
AcDbEntity
  8
0
100
AcDbLine
 10
18.30651650629826
 20
-37.48700105732403
 30
0.0
 11
18.30651650629827
 21
-34.48700105732391
 31
0.0
  0
SPLINE
  5
BFB1
330
BF74
100
AcDbEntity
  8
0
100
AcDbSpline
210
0.0
220
0.0
230
1.0
 70
     8
 71
     3
 72
    14
 73
    10
 74
     0
 42
0.000000001
 43
0.0000000001
 40
-0.7853981633974483
 40
-0.7853981633974483
 40
-0.7853981633974483
 40
-0.7853981633974483
 40
0.4440817313539139
 40
0.4440817313539139
 40
0.4440817313539139
 40
1.56916514439576
 40
1.56916514439576
 40
1.56916514439576
 40
2.356194490192128
 40
2.356194490192128
 40
2.356194490192128
 40
2.356194490192128
 10
5.321844428310138
 20
-4.70495724516134
 30
0.0
 10
5.321844428310138
 20
-4.70495724516134
 30
0.0
 10
5.097732956121435
 20
-4.933499239446067
 30
0.0
 10
4.71649914385043
 20
-5.142089158598568
 30
0.0
 10
4.367636311275557
 20
-5.332967479722866
 30
0.0
 10
3.903809848470973
 20
-5.45914525651602
 30
0.0
 10
3.606732286142792
 20
-5.492045067768672
 30
0.0
 10
3.398917686069908
 20
-5.515059465302979
 30
0.0
 10
3.276516506298079
 20
-5.510274194823939
 30
0.0
 10
3.276516506298014
 20
-5.510274194823939
 30
0.0
  0
SPLINE
  5
BFB2
330
BF74
100
AcDbEntity
  8
0
100
AcDbSpline
210
0.0
220
0.0
230
1.0
 70
     8
 71
     3
 72
    14
 73
    10
 74
     0
 42
0.000000001
 43
0.0000000001
 40
-0.785398163397379
 40
-0.785398163397379
 40
-0.785398163397379
 40
-0.785398163397379
 40
0.3160919271552699
 40
0.3160919271552699
 40
0.3160919271552699
 40
1.299764733775543
 40
1.299764733775543
 40
1.299764733775543
 40
2.35619449019219
 40
2.35619449019219
 40
2.35619449019219
 40
2.35619449019219
 10
3.276516506297776
 20
-8.510274194823875
 30
0.0
 10
3.276516506297833
 20
-8.510274194823875
 30
0.0
 10
3.779084263782012
 20
-8.534439768189084
 30
0.0
 10
4.500568670146034
 20
-8.384088653944912
 30
0.0
 10
5.14488185737115
 20
-8.249819354751446
 30
0.0
 10
5.917324802814838
 20
-7.93603474509549
 30
0.0
 10
6.461771453089263
 20
-7.594971916807241
 30
0.0
 10
7.046487873285379
 20
-7.228682518354432
 30
0.0
 10
7.367172350321875
 20
-6.89964029549885
 30
0.0
 10
7.367172350321967
 20
-6.899640295498768
 30
0.0
  0
SPLINE
  5
BFB3
330
BF74
100
AcDbEntity
  8
0
100
AcDbSpline
210
0.0
220
0.0
230
1.0
 70
     8
 71
     3
 72
    14
 73
    10
 74
     0
 42
0.000000001
 43
0.0000000001
 40
-2.356194490192277
 40
-2.356194490192277
 40
-2.356194490192277
 40
-2.356194490192277
 40
-1.126714595440921
 40
-1.126714595440921
 40
-1.126714595440921
 40
-0.0016311823990594
 40
-0.0016311823990594
 40
-0.0016311823990594
 40
0.7853981633974375
 40
0.7853981633974375
 40
0.7853981633974375
 40
0.7853981633974375
 10
-7.296328979195603
 20
2.730955130315734
 30
0.0
 10
-7.296328979195578
 20
2.730955130315756
 30
0.0
 10
-7.07221750700687
 20
2.959497124600515
 30
0.0
 10
-6.690983694735877
 20
3.168087043753034
 30
0.0
 10
-6.342120862161008
 20
3.35896536487735
 30
0.0
 10
-5.878294399356439
 20
3.485143141670517
 30
0.0
 10
-5.581216837028287
 20
3.518042952923186
 30
0.0
 10
-5.373402236955389
 20
3.541057350457502
 30
0.0
 10
-5.251001057183582
 20
3.536272079978467
 30
0.0
 10
-5.251001057183579
 20
3.536272079978466
 30
0.0
  0
SPLINE
  5
BFB4
330
BF74
100
AcDbEntity
  8
0
100
AcDbSpline
210
0.0
220
0.0
230
1.0
 70
     8
 71
     3
 72
    14
 73
    10
 74
     0
 42
0.000000001
 43
0.0000000001
 40
-0.7853981633974377
 40
-0.7853981633974377
 40
-0.7853981633974377
 40
-0.7853981633974377
 40
0.3160919271552167
 40
0.3160919271552167
 40
0.3160919271552167
 40
1.299764733775491
 40
1.299764733775491
 40
1.299764733775491
 40
2.3561944901923
 40
2.3561944901923
 40
2.3561944901923
 40
2.3561944901923
 10
-5.251001057183644
 20
6.536272079978492
 30
0.0
 10
-5.251001057183657
 20
6.536272079978492
 30
0.0
 10
-5.753568814667795
 20
6.560437653343659
 30
0.0
 10
-6.475053221031792
 20
6.410086539099438
 30
0.0
 10
-7.11936640825688
 20
6.275817239905936
 30
0.0
 10
-7.891809353700553
 20
5.962032630249927
 30
0.0
 10
-8.436256003974971
 20
5.62096980196163
 30
0.0
 10
-9.020972424171171
 20
5.254680403508713
 30
0.0
 10
-9.341656901207679
 20
4.92563818065305
 30
0.0
 10
-9.3416569012077
 20
4.925638180653031
 30
0.0
  0
ENDBLK
  5
BF76
330
BF74
100
AcDbEntity
  8
0
100
AcDbBlockEnd
  0
BLOCK
  5
BFB6
330
BFB5
100
AcDbEntity
  8
0
100
AcDbBlockBegin
  2
PBWS73-Bottom
 70
     0
 10
0.0
 20
0.0
 30
0.0
  3
PBWS73-Bottom
  1

  0
LINE
  5
BFB8
330
BFB5
100
AcDbEntity
  8
0
100
AcDbLine
 10
-5.251001057183726
 20
-9.536272079978481
 30
0.0
 11
-5.251001057183653
 21
-6.53627207997845
 31
0.0
  0
LINE
  5
BFB9
330
BFB5
100
AcDbEntity
  8
0
100
AcDbLine
 10
3.276516506298177
 20
11.51027419482391
 30
0.0
 11
3.27651650629817
 21
8.510274194823878
 31
0.0
  0
LINE
  5
BFBA
330
BFB5
100
AcDbEntity
  8
0
100
AcDbLine
 10
-5.251001057183554
 20
-6.53627207997852
 30
0.0
 11
6.748998942816478
 21
-6.536272079978797
 31
0.0
  0
LINE
  5
BFBB
330
BFB5
100
AcDbEntity
  8
0
100
AcDbLine
 10
-5.251001057183506
 20
-3.536272079978512
 30
0.0
 11
6.748998942816561
 21
-3.536272079978792
 31
0.0
  0
LINE
  5
BFBC
330
BFB5
100
AcDbEntity
  8
0
100
AcDbLine
 10
6.748998942816561
 20
-3.536272079978792
 30
0.0
 11
6.748998942816478
 21
-6.536272079978797
 31
0.0
  0
LINE
  5
BFBD
330
BFB5
100
AcDbEntity
  8
0
100
AcDbLine
 10
18.30699894281639
 20
-6.536272079979028
 30
0.0
 11
6.748998942816381
 21
-6.536272079978363
 31
0.0
  0
LINE
  5
BFBE
330
BFB5
100
AcDbEntity
  8
0
100
AcDbLine
 10
6.748998942816473
 20
-3.536272079978869
 30
0.0
 11
18.30699894281646
 21
-3.536272079979019
 31
0.0
  0
LINE
  5
BFBF
330
BFB5
100
AcDbEntity
  8
0
100
AcDbLine
 10
18.30699894281646
 20
-3.536272079979019
 30
0.0
 11
18.30699894281639
 21
-6.536272079979028
 31
0.0
  0
LINE
  5
BFC0
330
BFB5
100
AcDbEntity
  8
0
100
AcDbLine
 10
3.276516506298261
 20
8.510274194823896
 30
0.0
 11
-8.723483493701767
 21
8.510274194823919
 31
0.0
  0
LINE
  5
BFC1
330
BFB5
100
AcDbEntity
  8
0
100
AcDbLine
 10
3.276516506298261
 20
5.510274194823886
 30
0.0
 11
-8.72348349370177
 21
5.510274194823909
 31
0.0
  0
LINE
  5
BFC2
330
BFB5
100
AcDbEntity
  8
0
100
AcDbLine
 10
-8.72348349370177
 20
5.510274194823909
 30
0.0
 11
-8.723483493701767
 21
8.510274194823919
 31
0.0
  0
LINE
  5
BFC3
330
BFB5
100
AcDbEntity
  8
0
100
AcDbLine
 10
-20.28148349370186
 20
8.51027419482396
 30
0.0
 11
-8.723483493701829
 21
8.510274194823916
 31
0.0
  0
LINE
  5
BFC4
330
BFB5
100
AcDbEntity
  8
0
100
AcDbLine
 10
-8.72348349370184
 20
5.510274194823894
 30
0.0
 11
-20.28148349370185
 21
5.510274194823949
 31
0.0
  0
LINE
  5
BFC5
330
BFB5
100
AcDbEntity
  8
0
100
AcDbLine
 10
-20.28148349370185
 20
5.510274194823949
 30
0.0
 11
-20.28148349370186
 21
8.51027419482396
 31
0.0
  0
LINE
  5
BFC6
330
BFB5
100
AcDbEntity
  8
0
100
AcDbLine
 10
-20.28148349370185
 20
8.510274194823971
 30
0.0
 11
-20.28148349370184
 21
11.51027419482397
 31
0.0
  0
LINE
  5
BFC7
330
BFB5
100
AcDbEntity
  8
0
100
AcDbLine
 10
-20.28148349370184
 20
11.51027419482397
 30
0.0
 11
-20.28148349370181
 21
34.48700105732398
 31
0.0
  0
LINE
  5
BFC8
330
BFB5
100
AcDbEntity
  8
0
100
AcDbLine
 10
18.30699894281638
 20
-6.536272079979019
 30
0.0
 11
18.30699894281631
 21
-9.536272079979026
 31
0.0
  0
LINE
  5
BFC9
330
BFB5
100
AcDbEntity
  8
0
100
AcDbLine
 10
18.30699894281631
 20
-9.536272079979028
 30
0.0
 11
18.30699894281579
 21
-32.51299894247904
 31
0.0
  0
LINE
  5
BFCA
330
BFB5
100
AcDbEntity
  8
0
100
AcDbLine
 10
18.30651650629821
 20
19.22827419482386
 30
0.0
 11
13.30651650629819
 21
14.22827419482388
 31
0.0
  0
LINE
  5
BFCB
330
BFB5
100
AcDbEntity
  8
0
100
AcDbLine
 10
-20.28100105718392
 20
-17.25427207997813
 30
0.0
 11
-15.2810010571838
 21
-12.25427207997824
 31
0.0
  0
LINE
  5
BFCC
330
BFB5
100
AcDbEntity
  8
0
100
AcDbLine
 10
3.276516506298167
 20
12.7282741948239
 30
0.0
 11
3.276516506298175
 21
11.51027419482391
 31
0.0
  0
LINE
  5
BFCD
330
BFB5
100
AcDbEntity
  8
0
100
AcDbLine
 10
-5.251001057183742
 20
-10.75427207997848
 30
0.0
 11
-5.251001057183723
 21
-9.536272079978481
 31
0.0
  0
ARC
  5
BFCE
330
BFB5
100
AcDbEntity
  8
0
100
AcDbCircle
 10
4.776516506298188
 20
12.7282741948239
 30
0.0
 40
1.5
100
AcDbArc
 50
89.99999999999973
 51
180.0
  0
ARC
  5
BFCF
330
BFB5
100
AcDbEntity
  8
0
100
AcDbCircle
 10
-6.751001057183735
 20
-10.75427207997845
 30
0.0
 40
1.500000000000001
100
AcDbArc
 50
269.9999999999983
 51
0.0
  0
LINE
  5
BFD0
330
BFB5
100
AcDbEntity
  8
0
100
AcDbLine
 10
4.776516506298196
 20
14.2282741948239
 30
0.0
 11
13.30651650629819
 21
14.22827419482388
 31
0.0
  0
LINE
  5
BFD1
330
BFB5
100
AcDbEntity
  8
0
100
AcDbLine
 10
18.30651650629827
 20
34.48700105732391
 30
0.0
 11
18.30651650629821
 21
19.22827419482386
 31
0.0
  0
LINE
  5
BFD2
330
BFB5
100
AcDbEntity
  8
0
100
AcDbLine
 10
-6.751001057183779
 20
-12.25427207997844
 30
0.0
 11
-15.2810010571838
 21
-12.25427207997824
 31
0.0
  0
LINE
  5
BFD3
330
BFB5
100
AcDbEntity
  8
0
100
AcDbLine
 10
-20.28100105718428
 20
-32.51299894247816
 30
0.0
 11
-20.28100105718392
 21
-17.25427207997813
 31
0.0
  0
LINE
  5
BFD4
330
BFB5
100
AcDbEntity
  8
0
100
AcDbLine
 10
18.30699894281567
 20
-38.51299894247914
 30
0.0
 11
-20.28100105718448
 21
-38.51299894247823
 31
0.0
  0
LINE
  5
BFD5
330
BFB5
100
AcDbEntity
  8
0
100
AcDbLine
 10
18.30699894281568
 20
-38.51299894247913
 30
0.0
 11
18.30699894281582
 21
-32.51299894247904
 31
0.0
  0
LINE
  5
BFD6
330
BFB5
100
AcDbEntity
  8
0
100
AcDbLine
 10
-20.28100105718433
 20
-32.51299894247815
 30
0.0
 11
-20.28100105718446
 21
-38.51299894247823
 31
0.0
  0
LINE
  5
BFD7
330
BFB5
100
AcDbEntity
  8
0
100
AcDbLine
 10
-20.28148349370179
 20
40.487001057324
 30
0.0
 11
18.30651650629824
 21
40.48700105732402
 31
0.0
  0
LINE
  5
BFD8
330
BFB5
100
AcDbEntity
  8
0
100
AcDbLine
 10
-20.28148349370182
 20
40.487001057324
 30
0.0
 11
-20.28148349370181
 21
34.48700105732399
 31
0.0
  0
LINE
  5
BFD9
330
BFB5
100
AcDbEntity
  8
0
100
AcDbLine
 10
18.30651650629827
 20
34.48700105732391
 30
0.0
 11
18.30651650629826
 21
40.48700105732404
 31
0.0
  0
LINE
  5
BFDA
330
BFB5
100
AcDbEntity
  8
0
100
AcDbLine
 10
0.1417632206116677
 20
2.093954800755846
 30
0.0
 11
0.580134367400718
 21
1.195160754456684
 31
0.0
  0
LINE
  5
BFDB
330
BFB5
100
AcDbEntity
  8
0
100
AcDbLine
 10
-2.554618918285874
 20
0.7788413603886944
 30
0.0
 11
-2.116247771496807
 21
-0.1199526859104952
 31
0.0
  0
ARC
  5
BFDC
330
BFB5
100
AcDbEntity
  8
0
100
AcDbCircle
 10
-5.251001057183398
 20
-0.5362720799784995
 30
0.0
 40
6.000000000000019
100
AcDbArc
 50
25.99999999999869
 51
269.9999999999985
  0
ARC
  5
BFDD
330
BFB5
100
AcDbEntity
  8
0
100
AcDbCircle
 10
-5.251001057183398
 20
-0.5362720799784995
 30
0.0
 40
3.000000000000016
100
AcDbArc
 50
25.99999999999912
 51
269.999999999998
  0
ARC
  5
BFDE
330
BFB5
100
AcDbEntity
  8
0
100
AcDbCircle
 10
3.276516506298246
 20
2.510274194823884
 30
0.0
 40
6.000000000000013
100
AcDbArc
 50
205.999999999999
 51
89.99999999999992
  0
ARC
  5
BFDF
330
BFB5
100
AcDbEntity
  8
0
100
AcDbCircle
 10
3.276516506298246
 20
2.510274194823884
 30
0.0
 40
3.000000000000011
100
AcDbArc
 50
205.9999999999992
 51
89.99999999999976
  0
ENDBLK
  5
BFB7
330
BFB5
100
AcDbEntity
  8
0
100
AcDbBlockEnd
  0
BLOCK
  5
BFE1
330
BFE0
100
AcDbEntity
  8
0
100
AcDbBlockBegin
  2
PBWS73-ISO
 70
     0
 10
0.0
 20
0.0
 30
0.0
  3
PBWS73-ISO
  1

  0
LINE
  5
BFE3
330
BFE0
100
AcDbEntity
  8
0
100
AcDbLine
 10
10.79010607850095
 20
-115.7996145591396
 30
0.0
 11
10.79010607850057
 21
4.990440133565279
 31
0.0
  0
ELLIPSE
  5
BFE4
330
BFE0
100
AcDbEntity
  8
0
100
AcDbEllipse
 10
8.527364378703952
 20
41.80241822579588
 30
0.0
 11
-1.787816710194963
 21
6.67222279706949
 31
0.0
210
0.0
220
0.0
230
1.0
 40
0.5176380902050552
 41
2.51175724980114
 42
2.700305999688676
  0
LINE
  5
BFE5
330
BFE0
100
AcDbEntity
  8
0
100
AcDbLine
 10
7.937815982856928
 20
-116.6023338473958
 30
0.0
 11
8.668785734941362
 21
-117.0243594305313
 31
0.0
  0
LINE
  5
BFE6
330
BFE0
100
AcDbEntity
  8
0
100
AcDbLine
 10
8.668785734941357
 20
3.765695262173851
 30
0.0
 11
8.668785734941362
 21
-117.0243594305313
 31
0.0
  0
LINE
  5
BFE7
330
BFE0
100
AcDbEntity
  8
0
100
AcDbLine
 10
8.668785734941362
 20
-117.0243594305313
 30
0.0
 11
10.79010607850095
 21
-115.7996145591396
 31
0.0
  0
LINE
  5
BFE8
330
BFE0
100
AcDbEntity
  8
0
100
AcDbLine
 10
18.96284625545517
 20
36.19775595320422
 30
0.0
 11
10.79010607850057
 21
4.990440133565288
 31
0.0
  0
LINE
  5
BFE9
330
BFE0
100
AcDbEntity
  8
0
100
AcDbLine
 10
8.668785734941357
 20
3.765695262173851
 30
0.0
 11
16.84152591189557
 21
34.97301108181261
 31
0.0
  0
LINE
  5
BFEA
330
BFE0
100
AcDbEntity
  8
0
100
AcDbLine
 10
16.84152591189557
 20
34.9730110818126
 30
0.0
 11
18.96284625545517
 21
36.19775595320422
 31
0.0
  0
LINE
  5
BFEB
330
BFE0
100
AcDbEntity
  8
0
100
AcDbLine
 10
10.79010607850057
 20
4.990440133565288
 30
0.0
 11
8.668785734941357
 21
3.765695262173851
 31
0.0
  0
ELLIPSE
  5
BFEC
330
BFE0
100
AcDbEntity
  8
0
100
AcDbEllipse
 10
11.46229598145891
 20
38.89520751111066
 30
0.0
 11
-0.833795647379506
 21
0.5520732002289194
 31
0.0
210
0.0
220
0.0
230
1.0
 40
0.7846600913512847
 41
0.0779983288728339
 42
1.198023075403812
  0
SPLINE
  5
BFED
330
BFE0
100
AcDbEntity
  8
0
100
AcDbSpline
210
0.0
220
0.0
230
1.0
 70
     8
 71
     3
 72
    18
 73
    14
 74
     0
 42
0.000000001
 43
0.0000000001
 40
-0.8068545796853641
 40
-0.8068545796853641
 40
-0.8068545796853641
 40
-0.8068545796853641
 40
-0.6777094229505396
 40
-0.6777094229505396
 40
-0.4996954415939468
 40
-0.4996954415939468
 40
-0.313146992525323
 40
-0.313146992525323
 40
-0.1900102218698258
 40
-0.1900102218698258
 40
-0.0730808545653176
 40
-0.0730808545653176
 40
0.0
 40
0.0
 40
0.0
 40
0.0
 10
10.75518920027238
 20
38.48695922064679
 30
0.0
 10
10.90252000213419
 20
38.77098780599302
 30
0.0
 10
11.04431789325474
 20
39.13354802184012
 30
0.0
 10
11.41922572886976
 20
40.09492210354093
 30
0.0
 10
11.66881706654034
 20
40.72745934598609
 30
0.0
 10
12.29076014615298
 20
42.01870361578508
 30
0.0
 10
12.66908227537449
 20
42.67808747426832
 30
0.0
 10
13.35192112629909
 20
43.68920603069155
 30
0.0
 10
13.63679470601824
 20
44.07010511637211
 30
0.0
 10
14.17494263009255
 20
44.75674195330461
 30
0.0
 10
14.42877629016857
 20
45.06517357773055
 30
0.0
 10
14.7801183212467
 20
45.51934343185133
 30
0.0
 10
14.90032252451946
 20
45.68286311372539
 30
0.0
 10
14.99782988739157
 20
45.83542844899639
 30
0.0
  0
ELLIPSE
  5
BFEE
330
BFE0
100
AcDbEntity
  8
0
100
AcDbEllipse
 10
14.99782988739157
 20
45.01893186806866
 30
0.0
 11
-0.8950072398365826
 21
0.4460516120810551
 31
0.0
210
0.0
220
0.0
230
1.0
 40
0.7846600913512928
 41
5.085162231775758
 42
6.205186978306738
  0
ELLIPSE
  5
BFEF
330
BFE0
100
AcDbEntity
  8
0
100
AcDbEllipse
 10
9.375892516127789
 20
38.33248840122637
 30
0.0
 11
-0.4440557184830192
 21
-0.8959991734831699
 31
0.0
210
0.0
220
0.0
230
1.0
 40
0.6166825867284879
 41
4.673210178914487
 42
5.459858343614025
  0
ELLIPSE
  5
BFF0
330
BFE0
100
AcDbEntity
  8
0
100
AcDbEllipse
 10
8.527364378703952
 20
42.6189148067236
 30
0.0
 11
1.300230334687507
 21
-4.852525670595922
 31
0.0
210
0.0
220
0.0
230
0.9999999999999998
 40
0.5176380902050552
 41
5.855547854923101
 42
6.712520614354327
  0
ELLIPSE
  5
BFF1
330
BFE0
100
AcDbEntity
  8
0
100
AcDbEllipse
 10
8.527364378703952
 20
42.6189148067236
 30
0.0
 11
1.300230334687507
 21
-4.852525670595922
 31
0.0
210
0.0
220
0.0
230
0.9999999999999998
 40
0.5176380902050552
 41
5.595550581745651
 42
5.855547854923097
  0
ELLIPSE
  5
BFF2
330
BFE0
100
AcDbEntity
  8
0
100
AcDbEllipse
 10
10.5421802442547
 20
47.59140238894826
 30
0.0
 11
-0.1638799131656717
 21
0.9864802958299815
 31
0.0
210
0.0
220
0.0
230
1.0
 40
0.2257768980813837
 41
4.528811736611242
 42
5.648836483142201
  0
SPLINE
  5
BFF3
330
BFE0
100
AcDbEntity
  8
0
100
AcDbSpline
210
0.0
220
0.0
230
1.0
 70
     8
 71
     3
 72
    12
 73
     8
 74
     0
 42
0.000000001
 43
0.0000000001
 40
-0.806854612042912
 40
-0.806854612042912
 40
-0.806854612042912
 40
-0.806854612042912
 40
-0.6784472535904613
 40
-0.6784472535904613
 40
-0.5004982556602917
 40
-0.5004982556602917
 40
-0.3929647368484686
 40
-0.3929647368484686
 40
-0.3929647368484686
 40
-0.3929647368484686
 10
10.5421802442547
 20
48.407898969876
 30
0.0
 10
10.07787585425622
 20
48.30898375964102
 30
0.0
 10
9.629157199277006
 20
48.12659988500502
 30
0.0
 10
8.637930683920867
 20
47.5254972984869
 30
0.0
 10
8.124413667957119
 20
47.04614545601817
 30
0.0
 10
7.418228710196901
 20
46.16196469949379
 30
0.0
 10
7.178082852330216
 20
45.80282278836086
 30
0.0
 10
6.969032703207175
 20
45.42692969546163
 30
0.0
  0
ELLIPSE
  5
BFF4
330
BFE0
100
AcDbEntity
  8
0
100
AcDbEllipse
 10
10.30553897175583
 20
45.69880354661767
 30
0.0
 11
-4.852525670595825
 21
-1.300230334687763
 31
0.0
210
0.0
220
0.0
230
0.9999999999999998
 40
0.5176380902050492
 41
2.712257346414533
 42
4.526244578888811
  0
SPLINE
  5
BFF5
330
BFE0
100
AcDbEntity
  8
0
100
AcDbSpline
210
0.0
220
0.0
230
1.0
 70
     8
 71
     3
 72
    12
 73
     8
 74
     0
 42
0.000000001
 43
0.0000000001
 40
0.4099089821505197
 40
0.4099089821505197
 40
0.4099089821505197
 40
0.4099089821505197
 40
0.4997515102259383
 40
0.4997515102259383
 40
0.6777598305332381
 40
0.6777598305332381
 40
0.7732860792406173
 40
0.7732860792406173
 40
0.7732860792406173
 40
0.7732860792406173
 10
-12.1672766041683
 20
45.4973222119383
 30
0.0
 10
-12.01843843585919
 20
45.40804078949565
 30
0.0
 10
-11.87580026021579
 20
45.29921575615282
 30
0.0
 10
-11.47657272321832
 20
44.92096166017112
 30
0.0
 10
-11.24491168856366
 20
44.59699246738613
 30
0.0
 10
-10.92228057727138
 20
44.01345691336373
 30
0.0
 10
-10.81541163001951
 20
43.79346538481356
 30
0.0
 10
-10.70921277457058
 20
43.56578176540568
 30
0.0
  0
ELLIPSE
  5
BFF6
330
BFE0
100
AcDbEntity
  8
0
100
AcDbEllipse
 10
-10.54218024425497
 20
42.58003051896689
 30
0.0
 11
-0.1638799131656899
 21
0.9864802958299803
 31
0.0
210
0.0
220
0.0
230
1.0
 40
0.2257768980813896
 41
5.648836483142208
 42
6.283185307179587
  0
SPLINE
  5
BFF7
330
BFE0
100
AcDbEntity
  8
0
100
AcDbSpline
210
0.0
220
0.0
230
1.0
 70
     8
 71
     3
 72
    12
 73
     8
 74
     0
 42
0.000000001
 43
0.0000000001
 40
-0.8068546158705526
 40
-0.8068546158705526
 40
-0.8068546158705526
 40
-0.8068546158705526
 40
-0.678416235930937
 40
-0.678416235930937
 40
-0.5004620811529738
 40
-0.5004620811529738
 40
-0.403425995293259
 40
-0.403425995293259
 40
-0.403425995293259
 40
-0.403425995293259
 10
-10.54218024425498
 20
43.39652709989462
 30
0.0
 10
-10.07776368457363
 20
43.49546620671126
 30
0.0
 10
-9.628941105466488
 20
43.59173072884579
 30
0.0
 10
-8.637634052235682
 20
43.73268797172901
 30
0.0
 10
-8.124128229134328
 20
43.74153130457752
 30
0.0
 10
-7.443943414348855
 20
43.59330397461122
 30
0.0
 10
-7.224979911615162
 20
43.51007517967568
 30
0.0
 10
-7.030922186521384
 20
43.39806202716687
 30
0.0
  0
ELLIPSE
  5
BFF8
330
BFE0
100
AcDbEntity
  8
0
100
AcDbEllipse
 10
-10.30553897175615
 20
46.10562252315291
 30
0.0
 11
4.852525670595863
 21
1.300230334687736
 31
0.0
210
0.0
220
0.0
230
0.9999999999999998
 40
0.5176380902050399
 41
4.184881914758403
 42
4.526244578888832
  0
SPLINE
  5
BFF9
330
BFE0
100
AcDbEntity
  8
0
100
AcDbSpline
210
0.0
220
0.0
230
1.0
 70
     8
 71
     3
 72
    20
 73
    16
 74
     0
 42
0.000000001
 43
0.0000000001
 40
0.0252297526444727
 40
0.0252297526444727
 40
0.0252297526444727
 40
0.0252297526444727
 40
0.0849947518121601
 40
0.0849947518121601
 40
0.1677016658692704
 40
0.1677016658692704
 40
0.2862958373751462
 40
0.2862958373751462
 40
0.4375746863365329
 40
0.4375746863365329
 40
0.5888535352979196
 40
0.5888535352979196
 40
0.7261017491023442
 40
0.7261017491023442
 40
0.7816239974514059
 40
0.7816239974514059
 40
0.7816239974514059
 40
0.7816239974514059
 10
14.05475548903299
 20
45.37614046219048
 30
0.0
 10
14.00917034851689
 20
45.29718468274643
 30
0.0
 10
13.94539444957408
 20
45.19895449839307
 30
0.0
 10
13.76040945012932
 20
44.9342466308856
 30
0.0
 10
13.62703627432674
 20
44.75602039889442
 30
0.0
 10
13.27194662200143
 20
44.28207473543877
 30
0.0
 10
13.03788935778426
 20
43.96850222610942
 30
0.0
 10
12.51154252347184
 20
43.20475470393744
 30
0.0
 10
12.22153487469107
 20
42.73936971505472
 30
0.0
 10
11.7054615981558
 20
41.79180477381316
 30
0.0
 10
11.47883975490688
 20
41.30874559908725
 30
0.0
 10
11.10797973471676
 20
40.46141282763436
 30
0.0
 10
10.95560449613539
 20
40.0892089008923
 30
0.0
 10
10.77269723260847
 20
39.70192482018686
 30
0.0
 10
10.72375338704802
 20
39.6066755814336
 30
0.0
 10
10.68140706531998
 20
39.53332960068699
 30
0.0
  0
SPLINE
  5
BFFA
330
BFE0
100
AcDbEntity
  8
0
100
AcDbSpline
210
0.0
220
0.0
230
1.0
 70
     8
 71
     3
 72
    16
 73
    12
 74
     0
 42
0.000000001
 43
0.0000000001
 40
0.4484149941482582
 40
0.4484149941482582
 40
0.4484149941482582
 40
0.4484149941482582
 40
0.4841117339198494
 40
0.4841117339198494
 40
0.5647974452007261
 40
0.5647974452007261
 40
0.6454831564816028
 40
0.6454831564816028
 40
0.7261688677624793
 40
0.7261688677624793
 40
0.7927181217852107
 40
0.7927181217852107
 40
0.7927181217852107
 40
0.7927181217852107
 10
-12.16664984409294
 20
46.32724655845564
 30
0.0
 10
-12.08107859802497
 20
46.25895983080815
 30
0.0
 10
-11.9994742422734
 20
46.18591062670655
 30
0.0
 10
-11.74712364870587
 20
45.93493363160747
 30
0.0
 10
-11.59348383840956
 20
45.74113338446355
 30
0.0
 10
-11.32138683203854
 20
45.32894379602546
 30
0.0
 10
-11.20266633955378
 20
45.11041928999194
 30
0.0
 10
-10.98700997300626
 20
44.65726589392189
 30
0.0
 10
-10.88999489910275
 20
44.42243149089414
 30
0.0
 10
-10.72076835954043
 20
43.98683161112524
 30
0.0
 10
-10.64710501527353
 20
43.78712514400908
 30
0.0
 10
-10.57319891807074
 20
43.58876273661453
 30
0.0
  0
SPLINE
  5
BFFB
330
BFE0
100
AcDbEntity
  8
0
100
AcDbSpline
210
0.0
220
0.0
230
1.0
 70
     8
 71
     3
 72
    16
 73
    12
 74
     0
 42
0.000000001
 43
0.0000000001
 40
0.403425995293259
 40
0.403425995293259
 40
0.403425995293259
 40
0.403425995293259
 40
0.4841117194087177
 40
0.4841117194087177
 40
0.5647974435241765
 40
0.5647974435241765
 40
0.6454831676396352
 40
0.6454831676396352
 40
0.726168891755094
 40
0.726168891755094
 40
0.8068546158705526
 40
0.8068546158705526
 40
0.8068546158705526
 40
0.8068546158705526
 10
-7.031392278297569
 20
43.39879646739057
 30
0.0
 10
-7.246561067565696
 20
43.52302422579573
 30
0.0
 10
-7.478070753514747
 20
43.61617517423265
 30
0.0
 10
-7.95439344378693
 20
43.74519965112676
 30
0.0
 10
-8.199049503483657
 20
43.78135548066881
 30
0.0
 10
-8.692064560528869
 20
43.81090352462937
 30
0.0
 10
-8.940672150746841
 20
43.80445623166778
 30
0.0
 10
-9.440942893349072
 20
43.76464338939914
 30
0.0
 10
-9.692824628819318
 20
43.73124345896899
 30
0.0
 10
-10.19902170656917
 20
43.65315757505508
 30
0.0
 10
-10.45362973841655
 20
43.60844604180712
 30
0.0
 10
-10.70606015742066
 20
43.56651081479687
 30
0.0
  0
SPLINE
  5
BFFC
330
BFE0
100
AcDbEntity
  8
0
100
AcDbSpline
210
0.0
220
0.0
230
1.0
 70
     8
 71
     3
 72
    10
 73
     6
 74
     0
 42
0.000000001
 43
0.0000000001
 40
-0.9069936162370286
 40
-0.9069936162370286
 40
-0.9069936162370286
 40
-0.9069936162370286
 40
-0.7255948929896226
 40
-0.7255948929896226
 40
-0.5576338798942374
 40
-0.5576338798942374
 40
-0.5576338798942374
 40
-0.5576338798942374
 10
-10.70606015742066
 20
43.56651081479686
 30
0.0
 10
-10.97026667471875
 20
43.5226192730239
 30
0.0
 10
-11.23214186850088
 20
43.49226006083954
 30
0.0
 10
-11.72122464091026
 20
43.46039223240618
 30
0.0
 10
-11.94955706849059
 20
43.4569267653533
 30
0.0
 10
-12.16664984409294
 20
43.46477625561703
 30
0.0
  0
SPLINE
  5
BFFD
330
BFE0
100
AcDbEntity
  8
0
100
AcDbSpline
210
0.0
220
0.0
230
1.0
 70
     8
 71
     3
 72
     8
 73
     4
 74
     0
 42
0.000000001
 43
0.0000000001
 40
0.0
 40
0.0
 40
0.0
 40
0.0
 40
0.0252297526444727
 40
0.0252297526444727
 40
0.0252297526444727
 40
0.0252297526444727
 10
14.13281542024105
 20
45.51834820353092
 30
0.0
 10
14.10886945887301
 20
45.47208565603169
 30
0.0
 10
14.082771263351
 20
45.42467621947313
 30
0.0
 10
14.05474527301849
 20
45.37613703486756
 30
0.0
  0
SPLINE
  5
BFFE
330
BFE0
100
AcDbEntity
  8
0
100
AcDbSpline
210
0.0
220
0.0
230
1.0
 70
     8
 71
     3
 72
     8
 73
     4
 74
     0
 42
0.000000001
 43
0.0000000001
 40
0.7816239974514059
 40
0.7816239974514059
 40
0.7816239974514059
 40
0.7816239974514059
 40
0.8068545796853641
 40
0.8068545796853641
 40
0.8068545796853641
 40
0.8068545796853641
 10
10.68141631191092
 20
39.53335391660952
 30
0.0
 10
10.65338740724657
 20
39.48480677440539
 30
0.0
 10
10.62537399869222
 20
39.43849437366204
 30
0.0
 10
10.59728151430839
 20
39.39462384657292
 30
0.0
  0
ELLIPSE
  5
BFFF
330
BFE0
100
AcDbEntity
  8
0
100
AcDbEllipse
 10
9.23447115989048
 20
43.02716309718747
 30
0.0
 11
0.12560396413713
 21
-4.499590091588688
 31
0.0
210
0.0
220
0.0
230
1.0
 40
0.4835611851232675
 41
6.044065798986698
 42
6.901038558417925
  0
ELLIPSE
  5
C000
330
BFE0
100
AcDbEntity
  8
0
100
AcDbEllipse
 10
9.23447115989048
 20
43.02716309718747
 30
0.0
 11
0.12560396413713
 21
-4.499590091588688
 31
0.0
210
0.0
220
0.0
230
1.0
 40
0.4835611851232675
 41
5.588323596500508
 42
6.044065798986696
  0
SPLINE
  5
C001
330
BFE0
100
AcDbEntity
  8
0
100
AcDbSpline
210
0.0
220
0.0
230
1.0
 70
     8
 71
     3
 72
    12
 73
     8
 74
     0
 42
0.000000001
 43
0.0000000001
 40
0.3362264041805364
 40
0.3362264041805364
 40
0.3362264041805364
 40
0.3362264041805364
 40
0.5004982556602917
 40
0.5004982556602917
 40
0.6784472535904613
 40
0.6784472535904613
 40
0.806854612042912
 40
0.806854612042912
 40
0.806854612042912
 40
0.806854612042912
 10
7.77927425111189
 20
44.33060311612887
 30
0.0
 10
8.012113887035919
 20
44.82234541674917
 30
0.0
 10
8.298164684729599
 20
45.29839615746342
 30
0.0
 10
8.972474982579438
 20
46.19962906305744
 30
0.0
 10
9.369080101345652
 20
46.61717484919983
 30
0.0
 10
10.11623428859683
 20
47.16362807971994
 30
0.0
 10
10.44947104705377
 20
47.33911017325316
 30
0.0
 10
10.7910781878884
 20
47.44770109419063
 30
0.0
  0
ELLIPSE
  5
C002
330
BFE0
100
AcDbEntity
  8
0
100
AcDbEllipse
 10
10.30553897175583
 20
44.88230696568994
 30
0.0
 11
3.959561308001051
 21
2.141018822035621
 31
0.0
210
0.0
220
0.0
230
0.9999999999999998
 40
0.4835611851232656
 41
5.665332055941256
 42
7.479319288415249
  0
LINE
  5
C003
330
BFE0
100
AcDbEntity
  8
0
100
AcDbLine
 10
4.426145047821646
 20
51.9389935369097
 30
0.0
 11
10.54218024425471
 21
48.407898969876
 31
0.0
  0
ELLIPSE
  5
C004
330
BFE0
100
AcDbEntity
  8
0
100
AcDbEllipse
 10
4.426145047821654
 20
47.04001405134332
 30
0.0
 11
2.999999999999902
 21
5.196152422706713
 31
0.0
210
0.0
220
0.0
230
1.0
 40
0.5773502691896124
 41
0.7853981633974377
 42
1.915351184662492
  0
LINE
  5
C005
330
BFE0
100
AcDbEntity
  8
0
100
AcDbLine
 10
14.99782988739158
 20
45.83542844899638
 30
0.0
 11
21.08416659901476
 21
42.3214803101622
 31
0.0
  0
LINE
  5
C006
330
BFE0
100
AcDbEntity
  8
0
100
AcDbLine
 10
-4.426145047822144
 20
39.86543253286093
 30
0.0
 11
-10.54218024425497
 21
43.39652709989464
 31
0.0
  0
ELLIPSE
  5
C007
330
BFE0
100
AcDbEntity
  8
0
100
AcDbEllipse
 10
-4.426145047822135
 20
34.96645304729455
 30
0.0
 11
3.000000000000003
 21
5.196152422706665
 31
0.0
210
0.0
220
0.0
230
1.0
 40
0.5773502691896245
 41
5.497787143782138
 42
7.068583470577034
  0
ELLIPSE
  5
C008
330
BFE0
100
AcDbEntity
  8
0
100
AcDbEllipse
 10
-4.426145047822137
 20
34.96645304729455
 30
0.0
 11
1.500000000000006
 21
2.59807621135334
 31
0.0
210
0.0
220
0.0
230
1.0
 40
0.5773502691896245
 41
5.596852011188451
 42
6.969518603170721
  0
LINE
  5
C009
330
BFE0
100
AcDbEntity
  8
0
100
AcDbLine
 10
-4.426145047822142
 20
37.64619482589936
 30
0.0
 11
-4.426145047822144
 21
39.86543253286093
 31
0.0
  0
LINE
  5
C00A
330
BFE0
100
AcDbEntity
  8
0
100
AcDbLine
 10
-7.031392278297568
 20
43.39879646739057
 30
0.0
 11
-1.426145047822138
 21
40.16260547000121
 31
0.0
  0
LINE
  5
C00B
330
BFE0
100
AcDbEntity
  8
0
100
AcDbLine
 10
37.33116597295926
 20
51.70168977223319
 30
0.0
 11
21.08416659901476
 21
42.3214803101622
 31
0.0
  0
LINE
  5
C00C
330
BFE0
100
AcDbEntity
  8
0
100
AcDbLine
 10
10.75518920027238
 20
38.48695922064678
 30
0.0
 11
16.84152591189557
 21
34.9730110818126
 31
0.0
  0
ELLIPSE
  5
C00D
330
BFE0
100
AcDbEntity
  8
0
100
AcDbEllipse
 10
21.08416659901477
 20
37.42250082459585
 30
0.0
 11
-2.999999999999587
 21
-5.196152422706877
 31
0.0
210
0.0
220
0.0
230
0.9999999999999998
 40
0.5773502691896125
 41
3.92699081698699
 42
5.497787143781886
  0
ELLIPSE
  5
C00E
330
BFE0
100
AcDbEntity
  8
0
100
AcDbEllipse
 10
21.08416659901476
 20
37.42250082459584
 30
0.0
 11
1.500000000000104
 21
2.598076211353259
 31
0.0
210
0.0
220
0.0
230
1.0
 40
0.5773502691896125
 41
0.7853981633976757
 42
2.356194490192574
  0
LINE
  5
C00F
330
BFE0
100
AcDbEntity
  8
0
100
AcDbLine
 10
8.668785734941256
 20
35.3741159066541
 30
0.0
 11
8.668785734941357
 21
3.765695262173851
 31
0.0
  0
LINE
  5
C010
330
BFE0
100
AcDbEntity
  8
0
100
AcDbLine
 10
8.668785734941256
 20
37.9242401107625
 30
0.0
 11
8.668785734941256
 21
35.3741159066541
 31
0.0
  0
LINE
  5
C011
330
BFE0
100
AcDbEntity
  8
0
100
AcDbLine
 10
21.08416659901476
 20
39.87199056737903
 30
0.0
 11
37.33116597295926
 21
49.25220002945001
 31
0.0
  0
LINE
  5
C012
330
BFE0
100
AcDbEntity
  8
0
100
AcDbLine
 10
10.04532950053209
 20
67.4551748046524
 30
0.0
 11
37.33116597295926
 21
51.70168977223319
 31
0.0
  0
LINE
  5
C013
330
BFE0
100
AcDbEntity
  8
0
100
AcDbLine
 10
-10.04532950053312
 20
24.34925126511829
 30
0.0
 11
-12.16664984409282
 21
25.5739961365099
 31
0.0
  0
LINE
  5
C014
330
BFE0
100
AcDbEntity
  8
0
100
AcDbLine
 10
39.45248631651891
 20
55.37592438640786
 30
0.0
 11
41.57380666007852
 21
56.60066925779945
 31
0.0
  0
LINE
  5
C015
330
BFE0
100
AcDbEntity
  8
0
100
AcDbLine
 10
12.1666498440917
 20
71.12940941882712
 30
0.0
 11
39.45248631651891
 21
55.37592438640786
 31
0.0
  0
LINE
  5
C016
330
BFE0
100
AcDbEntity
  8
0
100
AcDbLine
 10
37.33116597295926
 20
49.25220002945001
 30
0.0
 11
37.33116597295926
 21
51.70168977223319
 31
0.0
  0
ELLIPSE
  5
C017
330
BFE0
100
AcDbEntity
  8
0
100
AcDbEllipse
 10
37.33116597295935
 20
54.15117951501624
 30
0.0
 11
2.999999999999582
 21
5.196152422706857
 31
0.0
210
0.0
220
0.0
230
1.0
 40
0.5773502691896122
 41
3.926990816986972
 42
5.497787143781882
  0
ELLIPSE
  5
C018
330
BFE0
100
AcDbEntity
  8
0
100
AcDbEllipse
 10
37.33116597295933
 20
54.15117951501624
 30
0.0
 11
-1.500000000000093
 21
-2.59807621135324
 31
0.0
210
0.0
220
0.0
230
1.0
 40
0.5773502691896116
 41
0.7853981633976482
 42
2.35619449019258
  0
ELLIPSE
  5
C019
330
BFE0
100
AcDbEntity
  8
0
100
AcDbEllipse
 10
10.04532950053211
 20
69.90466454743551
 30
0.0
 11
-1.500000000000092
 21
-2.59807621135323
 31
0.0
210
0.0
220
0.0
230
0.9999999999999998
 40
0.5773502691896124
 41
0.7853981633976464
 42
2.356194490192574
  0
LINE
  5
C01A
330
BFE0
100
AcDbEntity
  8
0
100
AcDbLine
 10
-41.57380666007902
 20
40.10273629753766
 30
0.0
 11
-14.28797018765251
 21
24.34925126511821
 31
0.0
  0
ELLIPSE
  5
C01B
330
BFE0
100
AcDbEntity
  8
0
100
AcDbEllipse
 10
-37.33116597295983
 20
42.55222604032081
 30
0.0
 11
-2.999999999999924
 21
-5.19615242270657
 31
0.0
210
0.0
220
0.0
230
0.9999999999999998
 40
0.5773502691896263
 41
5.497787143782133
 42
6.283185307179585
  0
ELLIPSE
  5
C01C
330
BFE0
100
AcDbEntity
  8
0
100
AcDbEllipse
 10
-10.0453295005332
 20
26.79874100790138
 30
0.0
 11
-2.999999999999997
 21
-5.196152422706675
 31
0.0
210
0.0
220
0.0
230
1.0
 40
0.5773502691896269
 41
5.497787143782133
 42
7.068583470577047
  0
LINE
  5
C01D
330
BFE0
100
AcDbEntity
  8
0
100
AcDbLine
 10
-14.28797018765251
 20
24.34925126511821
 30
0.0
 11
-12.16664984409286
 21
25.57399613650979
 31
0.0
  0
ELLIPSE
  5
C01E
330
BFE0
100
AcDbEntity
  8
0
100
AcDbEllipse
 10
-10.0453295005332
 20
26.79874100790138
 30
0.0
 11
-1.500000000000006
 21
-2.59807621135334
 31
0.0
210
0.0
220
0.0
230
1.0
 40
0.5773502691896282
 41
5.497787143782133
 42
7.068583470577062
  0
LINE
  5
C01F
330
BFE0
100
AcDbEntity
  8
0
100
AcDbLine
 10
-13.04532950053301
 20
21.60258858519502
 30
0.0
 11
-40.33116597295964
 21
37.35607361761446
 31
0.0
  0
LINE
  5
C020
330
BFE0
100
AcDbEntity
  8
0
100
AcDbLine
 10
-0.7442197362147564
 20
61.2258256483816
 30
0.0
 11
10.04532950053209
 21
67.4551748046524
 31
0.0
  0
LINE
  5
C021
330
BFE0
100
AcDbEntity
  8
0
100
AcDbLine
 10
5.287401107306809
 20
53.66098482608629
 30
0.0
 11
-0.7442197362145964
 21
57.14334274374296
 31
0.0
  0
LINE
  5
C022
330
BFE0
100
AcDbEntity
  8
0
100
AcDbLine
 10
4.231221095618385
 20
51.82128089736409
 30
0.0
 11
-0.7442197362145964
 21
54.69385300095978
 31
0.0
  0
LINE
  5
C023
330
BFE0
100
AcDbEntity
  8
0
100
AcDbLine
 10
-0.7442197362145965
 20
57.14334274374296
 30
0.0
 11
-0.7442197362147564
 21
61.2258256483816
 31
0.0
  0
LINE
  5
C024
330
BFE0
100
AcDbEntity
  8
0
100
AcDbLine
 10
0.7442197362139291
 20
34.6610833260276
 30
0.0
 11
0.7442197362139457
 21
30.57860042138897
 31
0.0
  0
LINE
  5
C025
330
BFE0
100
AcDbEntity
  8
0
100
AcDbLine
 10
0.7442197362139457
 20
30.57860042138897
 30
0.0
 11
0.7442197362139478
 21
28.12911067860579
 31
0.0
  0
LINE
  5
C026
330
BFE0
100
AcDbEntity
  8
0
100
AcDbLine
 10
-0.7442197362145966
 20
54.69385300095978
 30
0.0
 11
-0.7442197362145965
 21
57.14334274374296
 31
0.0
  0
ELLIPSE
  5
C027
330
BFE0
100
AcDbEntity
  8
0
100
AcDbEllipse
 10
4.226740935527023
 20
53.04861239039047
 30
0.0
 11
1.500000000000001
 21
0.0000000000000009
 31
0.0
210
0.0
220
0.0
230
1.0
 40
0.5773502691896266
 41
5.49778714378216
 42
7.068583470577065
  0
ELLIPSE
  5
C028
330
BFE0
100
AcDbEntity
  8
0
100
AcDbEllipse
 10
-4.226740935527525
 20
38.75581367938013
 30
0.0
 11
-1.5
 21
-0.0000000000000017
 31
0.0
210
0.0
220
0.0
230
1.0
 40
0.5773502691896251
 41
5.497787143782137
 42
7.06858347057704
  0
LINE
  5
C029
330
BFE0
100
AcDbEntity
  8
0
100
AcDbLine
 10
-5.287401107307362
 20
38.14344124368434
 30
0.0
 11
-5.287401107307355
 21
39.36818611507596
 31
0.0
  0
LINE
  5
C02A
330
BFE0
100
AcDbEntity
  8
0
100
AcDbLine
 10
5.287401107306809
 20
53.66098482608629
 30
0.0
 11
5.287401107306809
 21
52.43623995469469
 31
0.0
  0
LINE
  5
C02B
330
BFE0
100
AcDbEntity
  8
0
100
AcDbLine
 10
4.426145047821646
 20
51.9389935369097
 30
0.0
 11
5.28740110730685
 21
52.43623995469469
 31
0.0
  0
LINE
  5
C02C
330
BFE0
100
AcDbEntity
  8
0
100
AcDbLine
 10
-4.426145047822144
 20
39.86543253286093
 30
0.0
 11
-5.287401107307355
 21
39.36818611507596
 31
0.0
  0
LINE
  5
C02D
330
BFE0
100
AcDbEntity
  8
0
100
AcDbLine
 10
0.7442197362139457
 20
30.57860042138897
 30
0.0
 11
-10.04532950053312
 21
24.34925126511829
 31
0.0
  0
LINE
  5
C02E
330
BFE0
100
AcDbEntity
  8
0
100
AcDbLine
 10
-5.287401107307339
 20
38.14344124368433
 30
0.0
 11
0.7442197362139292
 21
34.6610833260276
 31
0.0
  0
LINE
  5
C02F
330
BFE0
100
AcDbEntity
  8
0
100
AcDbLine
 10
-10.04532950053312
 20
21.89976152233507
 30
0.0
 11
0.7442197362139469
 21
28.12911067860579
 31
0.0
  0
LINE
  5
C030
330
BFE0
100
AcDbEntity
  8
0
100
AcDbLine
 10
-10.04532950053312
 20
24.34925126511829
 30
0.0
 11
-10.04532950053312
 21
21.89976152233507
 31
0.0
  0
LINE
  5
C031
330
BFE0
100
AcDbEntity
  8
0
100
AcDbLine
 10
-10.79010607850108
 20
5.164327843432556
 30
0.0
 11
-10.79010607850108
 21
21.5458392754887
 31
0.0
  0
LINE
  5
C032
330
BFE0
100
AcDbEntity
  8
0
100
AcDbLine
 10
-10.79010607850104
 20
-115.6257268492726
 30
0.0
 11
-10.79010607850108
 21
5.164327843432552
 31
0.0
  0
LINE
  5
C033
330
BFE0
100
AcDbEntity
  8
0
100
AcDbLine
 10
-2.304824704262439
 20
-120.5247063348389
 30
0.0
 11
-10.79010607850104
 21
-115.6257268492726
 31
0.0
  0
LINE
  5
C034
330
BFE0
100
AcDbEntity
  8
0
100
AcDbLine
 10
-2.304824704262439
 20
-120.5247063348389
 30
0.0
 11
-2.304824704262463
 21
26.36874405012556
 31
0.0
  0
LINE
  5
C035
330
BFE0
100
AcDbEntity
  8
0
100
AcDbLine
 10
-7.12589251612796
 20
-6.291388700983997
 30
0.0
 11
-3.625892516127948
 21
-12.35356652747504
 31
0.0
  0
ELLIPSE
  5
C036
330
BFE0
100
AcDbEntity
  8
0
100
AcDbEllipse
 10
-4.375892516127946
 20
-12.78657922936727
 30
0.0
 11
0.7499999999999992
 21
-1.299038105676653
 31
0.0
210
0.0
220
0.0
230
1.0
 40
0.5773502691896273
 41
4.712388980384703
 42
7.85398163397448
  0
LINE
  5
C037
330
BFE0
100
AcDbEntity
  8
0
100
AcDbLine
 10
-5.125892516127946
 20
-13.21959193125951
 30
0.0
 11
-8.625892516127967
 21
-7.157414104768431
 31
0.0
  0
ELLIPSE
  5
C038
330
BFE0
100
AcDbEntity
  8
0
100
AcDbEllipse
 10
-7.87589251612796
 20
-6.724401402876196
 30
0.0
 11
-0.749999999999996
 21
1.299038105676645
 31
0.0
210
0.0
220
0.0
230
1.0
 40
0.5773502691896273
 41
4.712388980384677
 42
7.853981633974482
  0
LINE
  5
C039
330
BFE0
100
AcDbEntity
  8
0
100
AcDbLine
 10
-3.625892516127937
 20
-12.35356652747506
 30
0.0
 11
-5.125892516127946
 21
-13.21959193125951
 31
0.0
  0
LINE
  5
C03A
330
BFE0
100
AcDbEntity
  8
0
100
AcDbLine
 10
-7.125892516127958
 20
-6.291388700983988
 30
0.0
 11
-8.625892516127967
 21
-7.157414104768431
 31
0.0
  0
LINE
  5
C03B
330
BFE0
100
AcDbEntity
  8
0
100
AcDbLine
 10
-7.125892516127959
 20
-22.6213203195385
 30
0.0
 11
-3.625892516127957
 21
-28.68349814602958
 31
0.0
  0
ELLIPSE
  5
C03C
330
BFE0
100
AcDbEntity
  8
0
100
AcDbEllipse
 10
-4.375892516127936
 20
-29.11651084792183
 30
0.0
 11
0.7500000000000138
 21
-1.299038105676644
 31
0.0
210
0.0
220
0.0
230
1.0
 40
0.5773502691896273
 41
4.71238898038467
 42
7.853981633974504
  0
LINE
  5
C03D
330
BFE0
100
AcDbEntity
  8
0
100
AcDbLine
 10
-5.125892516127954
 20
-29.54952354981401
 30
0.0
 11
-8.625892516127954
 21
-23.48734572332295
 31
0.0
  0
ELLIPSE
  5
C03E
330
BFE0
100
AcDbEntity
  8
0
100
AcDbEllipse
 10
-7.875892516127958
 20
-23.05433302143072
 30
0.0
 11
-0.7499999999999991
 21
1.299038105676643
 31
0.0
210
0.0
220
0.0
230
0.9999999999999998
 40
0.5773502691896273
 41
4.712388980384691
 42
7.853981633974487
  0
LINE
  5
C03F
330
BFE0
100
AcDbEntity
  8
0
100
AcDbLine
 10
-7.125892516127958
 20
-38.95125193809306
 30
0.0
 11
-3.625892516127938
 21
-45.0134297645841
 31
0.0
  0
ELLIPSE
  5
C040
330
BFE0
100
AcDbEntity
  8
0
100
AcDbEllipse
 10
-4.375892516127944
 20
-45.44644246647635
 30
0.0
 11
0.750000000000012
 21
-1.299038105676646
 31
0.0
210
0.0
220
0.0
230
1.0
 40
0.5773502691896273
 41
4.712388980384681
 42
7.853981633974507
  0
LINE
  5
C041
330
BFE0
100
AcDbEntity
  8
0
100
AcDbLine
 10
-5.125892516127954
 20
-45.87945516836855
 30
0.0
 11
-8.625892516127935
 21
-39.8172773418775
 31
0.0
  0
ELLIPSE
  5
C042
330
BFE0
100
AcDbEntity
  8
0
100
AcDbEllipse
 10
-7.875892516127962
 20
-39.38426463998528
 30
0.0
 11
-0.7500000000000001
 21
1.299038105676642
 31
0.0
210
0.0
220
0.0
230
1.0
 40
0.5773502691896275
 41
4.712388980384696
 42
7.853981633974489
  0
LINE
  5
C043
330
BFE0
100
AcDbEntity
  8
0
100
AcDbLine
 10
-7.125892516127944
 20
-55.28118355664758
 30
0.0
 11
-3.625892516127935
 21
-61.34336138313862
 31
0.0
  0
ELLIPSE
  5
C044
330
BFE0
100
AcDbEntity
  8
0
100
AcDbEllipse
 10
-4.375892516127927
 20
-61.77637408503087
 30
0.0
 11
0.7500000000000135
 21
-1.299038105676644
 31
0.0
210
0.0
220
0.0
230
1.0
 40
0.5773502691896273
 41
4.712388980384702
 42
7.853981633974507
  0
LINE
  5
C045
330
BFE0
100
AcDbEntity
  8
0
100
AcDbLine
 10
-5.125892516127914
 20
-62.20938678692307
 30
0.0
 11
-8.625892516127942
 21
-56.14720896043201
 31
0.0
  0
ELLIPSE
  5
C046
330
BFE0
100
AcDbEntity
  8
0
100
AcDbEllipse
 10
-7.875892516127938
 20
-55.7141962585398
 30
0.0
 11
-0.7499999999999884
 21
1.299038105676649
 31
0.0
210
0.0
220
0.0
230
1.0
 40
0.5773502691896272
 41
4.712388980384698
 42
7.853981633974471
  0
LINE
  5
C047
330
BFE0
100
AcDbEntity
  8
0
100
AcDbLine
 10
-7.125892516127941
 20
-71.61111517520213
 30
0.0
 11
-3.625892516127943
 21
-77.67329300169315
 31
0.0
  0
ELLIPSE
  5
C048
330
BFE0
100
AcDbEntity
  8
0
100
AcDbEllipse
 10
-4.375892516127917
 20
-78.10630570358537
 30
0.0
 11
0.7500000000000111
 21
-1.299038105676646
 31
0.0
210
0.0
220
0.0
230
1.0
 40
0.5773502691896273
 41
4.71238898038469
 42
7.853981633974497
  0
LINE
  5
C049
330
BFE0
100
AcDbEntity
  8
0
100
AcDbLine
 10
-5.125892516127929
 20
-78.5393184054776
 30
0.0
 11
-8.625892516127946
 21
-72.47714057898654
 31
0.0
  0
ELLIPSE
  5
C04A
330
BFE0
100
AcDbEntity
  8
0
100
AcDbEllipse
 10
-7.875892516127944
 20
-72.04412787709436
 30
0.0
 11
-0.7499999999999764
 21
1.299038105676656
 31
0.0
210
0.0
220
0.0
230
1.0
 40
0.5773502691896272
 41
4.712388980384684
 42
7.853981633974443
  0
LINE
  5
C04B
330
BFE0
100
AcDbEntity
  8
0
100
AcDbLine
 10
-7.125892516127944
 20
-87.94104679375664
 30
0.0
 11
-3.625892516127915
 21
-94.00322462024773
 31
0.0
  0
ELLIPSE
  5
C04C
330
BFE0
100
AcDbEntity
  8
0
100
AcDbEllipse
 10
-4.375892516127906
 20
-94.43623732213998
 30
0.0
 11
0.7500000000000336
 21
-1.299038105676633
 31
0.0
210
0.0
220
0.0
230
0.9999999999999998
 40
0.5773502691896272
 41
4.712388980384672
 42
7.853981633974534
  0
LINE
  5
C04D
330
BFE0
100
AcDbEntity
  8
0
100
AcDbLine
 10
-5.12589251612792
 20
-94.86925002403214
 30
0.0
 11
-8.625892516127933
 21
-88.80707219754109
 31
0.0
  0
ELLIPSE
  5
C04E
330
BFE0
100
AcDbEntity
  8
0
100
AcDbEllipse
 10
-7.87589251612794
 20
-88.37405949564891
 30
0.0
 11
-0.7499999999999841
 21
1.299038105676651
 31
0.0
210
0.0
220
0.0
230
1.0
 40
0.5773502691896275
 41
4.712388980384705
 42
7.853981633974459
  0
LINE
  5
C04F
330
BFE0
100
AcDbEntity
  8
0
100
AcDbLine
 10
-7.125892516127909
 20
-104.2709784123112
 30
0.0
 11
-3.625892516127921
 21
-110.3331562388022
 31
0.0
  0
ELLIPSE
  5
C050
330
BFE0
100
AcDbEntity
  8
0
100
AcDbEllipse
 10
-4.375892516127913
 20
-110.7661689406944
 30
0.0
 11
0.7499999999999887
 21
-1.299038105676659
 31
0.0
210
0.0
220
0.0
230
1.0
 40
0.5773502691896273
 41
4.712388980384693
 42
7.853981633974458
  0
LINE
  5
C051
330
BFE0
100
AcDbEntity
  8
0
100
AcDbLine
 10
-5.125892516127929
 20
-111.1991816425866
 30
0.0
 11
-8.625892516127922
 21
-105.1370038160956
 31
0.0
  0
ELLIPSE
  5
C052
330
BFE0
100
AcDbEntity
  8
0
100
AcDbEllipse
 10
-7.875892516127938
 20
-104.7039911142034
 30
0.0
 11
-0.749999999999991
 21
1.299038105676647
 31
0.0
210
0.0
220
0.0
230
1.0
 40
0.5773502691896273
 41
4.712388980384674
 42
7.853981633974482
  0
LINE
  5
C053
330
BFE0
100
AcDbEntity
  8
0
100
AcDbLine
 10
-3.62589251612792
 20
-110.3331562388022
 30
0.0
 11
-5.125892516127929
 21
-111.1991816425866
 31
0.0
  0
LINE
  5
C054
330
BFE0
100
AcDbEntity
  8
0
100
AcDbLine
 10
-7.125892516127949
 20
-104.2709784123111
 30
0.0
 11
-8.625892516127922
 21
-105.1370038160956
 31
0.0
  0
LINE
  5
C055
330
BFE0
100
AcDbEntity
  8
0
100
AcDbLine
 10
-3.625892516127915
 20
-94.00322462024769
 30
0.0
 11
-5.12589251612792
 21
-94.86925002403214
 31
0.0
  0
LINE
  5
C056
330
BFE0
100
AcDbEntity
  8
0
100
AcDbLine
 10
-7.12589251612795
 20
-87.94104679375667
 30
0.0
 11
-8.625892516127933
 21
-88.80707219754109
 31
0.0
  0
LINE
  5
C057
330
BFE0
100
AcDbEntity
  8
0
100
AcDbLine
 10
-3.625892516127934
 20
-77.67329300169317
 30
0.0
 11
-5.125892516127929
 21
-78.5393184054776
 31
0.0
  0
LINE
  5
C058
330
BFE0
100
AcDbEntity
  8
0
100
AcDbLine
 10
-7.125892516127971
 20
-71.61111517520211
 30
0.0
 11
-8.625892516127946
 21
-72.47714057898654
 31
0.0
  0
LINE
  5
C059
330
BFE0
100
AcDbEntity
  8
0
100
AcDbLine
 10
-3.625892516127919
 20
-61.34336138313864
 30
0.0
 11
-5.125892516127914
 21
-62.20938678692307
 31
0.0
  0
LINE
  5
C05A
330
BFE0
100
AcDbEntity
  8
0
100
AcDbLine
 10
-7.125892516127958
 20
-55.28118355664758
 30
0.0
 11
-8.625892516127942
 21
-56.14720896043201
 31
0.0
  0
LINE
  5
C05B
330
BFE0
100
AcDbEntity
  8
0
100
AcDbLine
 10
-3.625892516127946
 20
-45.01342976458409
 30
0.0
 11
-5.125892516127954
 21
-45.87945516836855
 31
0.0
  0
LINE
  5
C05C
330
BFE0
100
AcDbEntity
  8
0
100
AcDbLine
 10
-7.125892516127962
 20
-38.95125193809306
 30
0.0
 11
-8.625892516127935
 21
-39.8172773418775
 31
0.0
  0
LINE
  5
C05D
330
BFE0
100
AcDbEntity
  8
0
100
AcDbLine
 10
-3.625892516127961
 20
-28.68349814602957
 30
0.0
 11
-5.125892516127954
 21
-29.54952354981401
 31
0.0
  0
LINE
  5
C05E
330
BFE0
100
AcDbEntity
  8
0
100
AcDbLine
 10
-7.125892516127958
 20
-22.62132031953851
 30
0.0
 11
-8.625892516127954
 21
-23.48734572332295
 31
0.0
  0
LINE
  5
C05F
330
BFE0
100
AcDbEntity
  8
0
100
AcDbLine
 10
-14.23342858040234
 20
22.28853790878151
 30
0.0
 11
-10.79010607850108
 21
5.164327843432556
 31
0.0
  0
LINE
  5
C060
330
BFE0
100
AcDbEntity
  8
0
100
AcDbLine
 10
0.9611115194852317
 20
45.17735335947387
 30
0.0
 11
-0.0155929438863027
 21
46.81503957191204
 31
0.0
  0
ELLIPSE
  5
C061
330
BFE0
100
AcDbEntity
  8
0
100
AcDbEllipse
 10
1.937815982856798
 20
43.53966714703611
 30
0.0
 11
3.000000000000011
 21
0.0000000000001427
 31
0.0
210
0.0
220
0.0
230
1.0
 40
0.577350269189534
 41
4.677178363873943
 42
8.185594191853411
  0
LINE
  5
C062
330
BFE0
100
AcDbEntity
  8
0
100
AcDbLine
 10
1.832205958813022
 20
41.80868991602615
 30
0.0
 11
1.726595934769243
 21
40.0777126850165
 31
0.0
  0
ELLIPSE
  5
C063
330
BFE0
100
AcDbEntity
  8
0
100
AcDbEllipse
 10
1.937815982856798
 20
43.53966714703611
 30
0.0
 11
6.000000000000039
 21
0.0000000000000175
 31
0.0
210
0.0
220
0.0
230
1.0
 40
0.5773502691896741
 41
4.677178363873968
 42
8.18559419185343
  0
LINE
  5
C064
330
BFE0
100
AcDbEntity
  8
0
100
AcDbLine
 10
-0.0155929438863028
 20
46.81503957191204
 30
0.0
 11
-0.9611115194856212
 21
46.62707271029662
 31
0.0
  0
LINE
  5
C065
330
BFE0
100
AcDbEntity
  8
0
100
AcDbLine
 10
0.015592943885918
 20
44.98938649785846
 30
0.0
 11
-0.9611115194856212
 21
46.62707271029662
 31
0.0
  0
LINE
  5
C066
330
BFE0
100
AcDbEntity
  8
0
100
AcDbLine
 10
0.015592943885918
 20
44.98938649785846
 30
0.0
 11
0.9611115194852317
 21
45.17735335947387
 31
0.0
  0
LINE
  5
C067
330
BFE0
100
AcDbEntity
  8
0
100
AcDbLine
 10
-1.726595934769591
 20
46.82773389918773
 30
0.0
 11
-1.72659593476959
 21
51.72671338475411
 31
0.0
  0
LINE
  5
C068
330
BFE0
100
AcDbEntity
  8
0
100
AcDbLine
 10
-1.832205958813365
 20
49.99573615374446
 30
0.0
 11
-1.72659593476959
 21
51.72671338475411
 31
0.0
  0
LINE
  5
C069
330
BFE0
100
AcDbEntity
  8
0
100
AcDbLine
 10
-1.832205958813366
 20
46.53378169172522
 30
0.0
 11
-1.832205958813365
 21
49.99573615374446
 31
0.0
  0
LINE
  5
C06A
330
BFE0
100
AcDbEntity
  8
0
100
AcDbLine
 10
1.726595934769245
 20
35.1787331994502
 30
0.0
 11
1.726595934769243
 21
40.0777126850165
 31
0.0
  0
ELLIPSE
  5
C06B
330
BFE0
100
AcDbEntity
  8
0
100
AcDbEllipse
 10
-1.937815982857125
 20
48.26475892273486
 30
0.0
 11
-2.999999999999999
 21
0.0000000000000263
 31
0.0
210
0.0
220
0.0
230
1.0
 40
0.577350269189644
 41
4.677178363873981
 42
8.185594191853423
  0
ELLIPSE
  5
C06C
330
BFE0
100
AcDbEntity
  8
0
100
AcDbEllipse
 10
-1.937815982857125
 20
48.26475892273486
 30
0.0
 11
-6.000000000000018
 21
-0.000000000000001
 31
0.0
210
0.0
220
0.0
230
1.0
 40
0.5773502691896161
 41
4.677178363873973
 42
8.185594191853422
  0
ELLIPSE
  5
C06D
330
BFE0
100
AcDbEntity
  8
0
100
AcDbEllipse
 10
26.9013409504576
 20
108.1420159288622
 30
0.0
 11
1.249999999999906
 21
-2.165063509461154
 31
0.0
210
0.0
220
0.0
230
1.0
 40
0.5773502691896415
 41
0.0
 42
6.283185307179586
  0
ELLIPSE
  5
C06E
330
BFE0
100
AcDbEntity
  8
0
100
AcDbEllipse
 10
29.0226612940172
 20
109.3667608002538
 30
0.0
 11
1.250000000000164
 21
-2.165063509461006
 31
0.0
210
0.0
220
0.0
230
0.9999999999999998
 40
0.5773502691896403
 41
4.154790153684961
 42
5.269987807084177
  0
ELLIPSE
  5
C06F
330
BFE0
100
AcDbEntity
  8
0
100
AcDbEllipse
 10
33.79563206702655
 20
88.85228420444477
 30
0.0
 11
1.249999999999906
 21
-2.165063509461153
 31
0.0
210
0.0
220
0.0
230
0.9999999999999998
 40
0.5773502691896415
 41
0.0
 42
6.283185307179586
  0
ELLIPSE
  5
C070
330
BFE0
100
AcDbEntity
  8
0
100
AcDbEllipse
 10
35.91695241058614
 20
90.07702907583636
 30
0.0
 11
1.250000000000164
 21
-2.165063509461004
 31
0.0
210
0.0
220
0.0
230
1.0
 40
0.5773502691896405
 41
4.154790153684961
 42
5.269987807084173
  0
ELLIPSE
  5
C071
330
BFE0
100
AcDbEntity
  8
0
100
AcDbEllipse
 10
18.53061087477103
 20
127.4676735028406
 30
0.0
 11
2.124999999999841
 21
-3.680607966083962
 31
0.0
210
0.0
220
0.0
230
0.9999999999999998
 40
0.5773502691896414
 41
0.0
 42
6.283185307179586
  0
ELLIPSE
  5
C072
330
BFE0
100
AcDbEntity
  8
0
100
AcDbEllipse
 10
20.65193121833061
 20
128.6924183742321
 30
0.0
 11
2.125000000000283
 21
-3.680607966083707
 31
0.0
210
0.0
220
0.0
230
0.9999999999999998
 40
0.5773502691896413
 41
3.664191975904904
 42
5.760585984863716
  0
ELLIPSE
  5
C073
330
BFE0
100
AcDbEntity
  8
0
100
AcDbEllipse
 10
-26.9013409504582
 20
79.60075839991654
 30
0.0
 11
1.250000000000128
 21
-2.165063509461023
 31
0.0
210
0.0
220
0.0
230
0.9999999999999998
 40
0.5773502691896263
 41
4.154790153685032
 42
5.269987807084104
  0
ELLIPSE
  5
C074
330
BFE0
100
AcDbEntity
  8
0
100
AcDbEllipse
 10
-29.02266129401785
 20
78.37601352852496
 30
0.0
 11
1.249999999999868
 21
-2.165063509461173
 31
0.0
210
0.0
220
0.0
230
0.9999999999999998
 40
0.5773502691896258
 41
0.0
 42
6.283185307179586
  0
ELLIPSE
  5
C075
330
BFE0
100
AcDbEntity
  8
0
100
AcDbEllipse
 10
-33.79563206702701
 20
68.27186833954431
 30
0.0
 11
1.250000000000129
 21
-2.165063509461022
 31
0.0
210
0.0
220
0.0
230
1.0
 40
0.5773502691896263
 41
4.154790153685041
 42
5.269987807084099
  0
ELLIPSE
  5
C076
330
BFE0
100
AcDbEntity
  8
0
100
AcDbEllipse
 10
-35.91695241058666
 20
67.04712346815272
 30
0.0
 11
1.249999999999868
 21
-2.165063509461173
 31
0.0
210
0.0
220
0.0
230
0.9999999999999998
 40
0.5773502691896258
 41
0.0
 42
6.283185307179586
  0
ELLIPSE
  5
C077
330
BFE0
100
AcDbEntity
  8
0
100
AcDbEllipse
 10
-18.5306108747718
 20
89.26072944887245
 30
0.0
 11
2.125000000000217
 21
-3.680607966083741
 31
0.0
210
0.0
220
0.0
230
1.0
 40
0.5773502691896254
 41
3.664191975904927
 42
5.760585984863683
  0
ELLIPSE
  5
C078
330
BFE0
100
AcDbEntity
  8
0
100
AcDbEllipse
 10
-20.65193121833146
 20
88.03598457748087
 30
0.0
 11
2.124999999999779
 21
-3.680607966083992
 31
0.0
210
0.0
220
0.0
230
1.0
 40
0.5773502691896259
 41
0.0
 42
6.283185307179586
  0
LINE
  5
C079
330
BFE0
100
AcDbEntity
  8
0
100
AcDbLine
 10
41.57380666007878
 20
119.8791542796985
 30
0.0
 11
38.03827275414599
 21
126.0028786366564
 31
0.0
  0
LINE
  5
C07A
330
BFE0
100
AcDbEntity
  8
0
100
AcDbLine
 10
38.03827275414599
 20
126.0028786366564
 30
0.0
 11
35.91695241058638
 21
124.7781337652648
 31
0.0
  0
LINE
  5
C07B
330
BFE0
100
AcDbEntity
  8
0
100
AcDbLine
 10
35.91695241058638
 20
124.7781337652648
 30
0.0
 11
39.45248631651921
 21
118.6544094083069
 31
0.0
  0
LINE
  5
C07C
330
BFE0
100
AcDbEntity
  8
0
100
AcDbLine
 10
39.45248631651921
 20
118.6544094083069
 30
0.0
 11
41.57380666007878
 21
119.8791542796985
 31
0.0
  0
LINE
  5
C07D
330
BFE0
100
AcDbEntity
  8
0
100
AcDbLine
 10
12.16664984409195
 20
134.4078944407262
 30
0.0
 11
15.70218375002484
 21
136.4491358930455
 31
0.0
  0
LINE
  5
C07E
330
BFE0
100
AcDbEntity
  8
0
100
AcDbLine
 10
-17.82350409358531
 20
93.75146064397499
 30
0.0
 11
-14.28797018765275
 21
87.62773628701708
 31
0.0
  0
LINE
  5
C07F
330
BFE0
100
AcDbEntity
  8
0
100
AcDbLine
 10
-14.28797018765275
 20
87.62773628701708
 30
0.0
 11
-12.16664984409309
 21
88.8524811584087
 31
0.0
  0
LINE
  5
C080
330
BFE0
100
AcDbEntity
  8
0
100
AcDbLine
 10
-12.16664984409309
 20
88.8524811584087
 30
0.0
 11
-15.70218375002568
 21
94.97620551536661
 31
0.0
  0
LINE
  5
C081
330
BFE0
100
AcDbEntity
  8
0
100
AcDbLine
 10
-15.70218375002568
 20
94.97620551536661
 30
0.0
 11
-17.82350409358531
 21
93.75146064397499
 31
0.0
  0
LINE
  5
C082
330
BFE0
100
AcDbEntity
  8
0
100
AcDbLine
 10
-38.03827275414633
 20
105.4224627717559
 30
0.0
 11
-35.91695241058669
 21
106.6472076431475
 31
0.0
  0
LINE
  5
C083
330
BFE0
100
AcDbEntity
  8
0
100
AcDbLine
 10
-41.57380666007909
 20
103.3812213194365
 30
0.0
 11
-38.03827275414633
 21
105.4224627717559
 31
0.0
  0
LINE
  5
C084
330
BFE0
100
AcDbEntity
  8
0
100
AcDbLine
 10
15.70218375002484
 20
136.4491358930455
 30
0.0
 11
17.82350409358443
 21
137.6738807644371
 31
0.0
  0
LINE
  5
C085
330
BFE0
100
AcDbEntity
  8
0
100
AcDbLine
 10
39.45248631651921
 20
118.6544094083069
 30
0.0
 11
39.45248631651891
 21
55.37592438640786
 31
0.0
  0
LINE
  5
C086
330
BFE0
100
AcDbEntity
  8
0
100
AcDbLine
 10
41.57380666007852
 20
56.60066925779945
 30
0.0
 11
41.57380666007878
 21
119.8791542796985
 31
0.0
  0
LINE
  5
C087
330
BFE0
100
AcDbEntity
  8
0
100
AcDbLine
 10
35.91695241058638
 20
124.7781337652648
 30
0.0
 11
15.70218375002484
 21
136.4491358930455
 31
0.0
  0
LINE
  5
C088
330
BFE0
100
AcDbEntity
  8
0
100
AcDbLine
 10
12.16664984409195
 20
134.4078944407262
 30
0.0
 11
12.1666498440917
 21
71.12940941882712
 31
0.0
  0
LINE
  5
C089
330
BFE0
100
AcDbEntity
  8
0
100
AcDbLine
 10
-35.91695241058669
 20
106.6472076431475
 30
0.0
 11
-15.70218375002568
 21
94.97620551536661
 31
0.0
  0
LINE
  5
C08A
330
BFE0
100
AcDbEntity
  8
0
100
AcDbLine
 10
-38.03827275414633
 20
105.4224627717559
 30
0.0
 11
-17.82350409358532
 21
93.75146064397499
 31
0.0
  0
LINE
  5
C08B
330
BFE0
100
AcDbEntity
  8
0
100
AcDbLine
 10
-12.16664984409309
 20
88.8524811584087
 30
0.0
 11
-12.16664984409286
 21
25.57399613650979
 31
0.0
  0
LINE
  5
C08C
330
BFE0
100
AcDbEntity
  8
0
100
AcDbLine
 10
-41.57380666007902
 20
40.10273629753766
 30
0.0
 11
-41.57380666007909
 21
103.3812213194365
 31
0.0
  0
LINE
  5
C08D
330
BFE0
100
AcDbEntity
  8
0
100
AcDbLine
 10
38.03827275414599
 20
126.0028786366564
 30
0.0
 11
17.82350409358443
 21
137.6738807644371
 31
0.0
  0
LINE
  5
C08E
330
BFE0
100
AcDbEntity
  8
0
100
AcDbLine
 10
-14.28797018765275
 20
87.62773628701708
 30
0.0
 11
-14.28797018765251
 21
24.34925126511821
 31
0.0
  0
LINE
  5
C08F
330
BFE0
100
AcDbEntity
  8
0
100
AcDbLine
 10
0.9611115194852317
 20
45.17735335947387
 30
0.0
 11
0.9611115194852375
 21
35.80551211377527
 31
0.0
  0
LINE
  5
C090
330
BFE0
100
AcDbEntity
  8
0
100
AcDbLine
 10
0.015592943885918
 20
44.98938649785846
 30
0.0
 11
0.0155929438859233
 21
36.51523719395573
 31
0.0
  0
LINE
  5
C091
330
BFE0
100
AcDbEntity
  8
0
100
AcDbLine
 10
-7.93781598285716
 20
43.73239301899483
 30
0.0
 11
-7.937815982857162
 21
48.26475892273485
 31
0.0
  0
LINE
  5
C092
330
BFE0
100
AcDbEntity
  8
0
100
AcDbLine
 10
7.937815982856928
 20
-118.0752165920559
 30
0.0
 11
7.937815982856882
 21
43.53966714703613
 31
0.0
  0
LINE
  5
C093
330
BFE0
100
AcDbEntity
  8
0
100
AcDbLine
 10
-1.726595934769591
 20
46.82773389918773
 30
0.0
 11
-1.744376076149385
 21
46.53631251025024
 31
0.0
  0
SPLINE
  5
C094
330
BFE0
100
AcDbEntity
  8
0
100
AcDbSpline
210
0.0
220
0.0
230
1.0
 70
     8
 71
     3
 72
    14
 73
    10
 74
     0
 42
0.000000001
 43
0.0000000001
 40
-0.3483661581039899
 40
-0.3483661581039899
 40
-0.3483661581039899
 40
-0.3483661581039899
 40
0.4440817313539139
 40
0.4440817313539139
 40
0.4440817313539139
 40
1.56916514439576
 40
1.56916514439576
 40
1.56916514439576
 40
2.356194490192128
 40
2.356194490192128
 40
2.356194490192128
 40
2.356194490192128
 10
1.720898725392117
 20
36.39724075600808
 30
0.0
 10
1.592402717394895
 20
36.11137700041229
 30
0.0
 10
1.363880136819676
 20
35.88714951220756
 30
0.0
 10
1.095063262947582
 20
35.82428798939319
 30
0.0
 10
0.7134086330814476
 20
35.73503990434197
 30
0.0
 10
0.2962126343330753
 20
35.9890343682218
 30
0.0
 10
0.0628833958359408
 20
36.42113787601616
 30
0.0
 10
-0.1003373536665964
 20
36.72340714522194
 30
0.0
 10
-0.18350436070295
 20
37.09463940511139
 30
0.0
 10
-0.1835043607029955
 20
37.41594279007767
 30
0.0
  0
LINE
  5
C095
330
BFE0
100
AcDbEntity
  8
0
100
AcDbLine
 10
-2.105420591967879
 20
36.30632393659696
 30
0.0
 11
-0.1835043607028428
 21
37.41594279007774
 31
0.0
  0
SPLINE
  5
C096
330
BFE0
100
AcDbEntity
  8
0
100
AcDbSpline
210
0.0
220
0.0
230
1.0
 70
     8
 71
     3
 72
     8
 73
     4
 74
     0
 42
0.000000001
 43
0.0000000001
 40
1.379729697021934
 40
1.379729697021934
 40
1.379729697021934
 40
1.379729697021934
 40
2.35619449019219
 40
2.35619449019219
 40
2.35619449019219
 40
2.35619449019219
 10
0.7436418130470078
 20
34.23124128079904
 30
0.0
 10
1.334088720225776
 20
34.38578986607733
 30
0.0
 10
1.726595934768726
 20
34.78009311694012
 30
0.0
 10
1.726595934768839
 20
35.17873319945003
 30
0.0
  0
SPLINE
  5
C097
330
BFE0
100
AcDbEntity
  8
0
100
AcDbSpline
210
0.0
220
0.0
230
1.0
 70
     8
 71
     3
 72
     8
 73
     4
 74
     0
 42
0.000000001
 43
0.0000000001
 40
2.120201833790571
 40
2.120201833790571
 40
2.120201833790571
 40
2.120201833790571
 40
2.3561944901923
 40
2.3561944901923
 40
2.3561944901923
 40
2.3561944901923
 10
-1.660564039123341
 20
46.54166768194872
 30
0.0
 10
-1.703669768224743
 20
46.6356405475015
 30
0.0
 10
-1.726595934769668
 20
46.73139030064966
 30
0.0
 10
-1.726595934769674
 20
46.82773389918769
 30
0.0
  0
ELLIPSE
  5
C098
330
BFE0
100
AcDbEntity
  8
0
100
AcDbEllipse
 10
1.937815982856843
 20
-118.0752165920559
 30
0.0
 11
6.000000000000013
 21
0.0000000000003589
 31
0.0
210
0.0
220
0.0
230
1.0
 40
0.5773502691896254
 41
3.926990816987002
 42
6.283185307179209
  0
ENDBLK
  5
BFE2
330
BFE0
100
AcDbEntity
  8
0
100
AcDbBlockEnd
  0
ENDSEC
  0
SECTION
  2
ENTITIES
  0
INSERT
  5
C099
330
1F
100
AcDbEntity
  8
0
100
AcDbBlockReference
  2
PBWS73-Front
 10
0.0
 20
0.0
 30
0.0
  0
INSERT
  5
C09A
330
1F
100
AcDbEntity
  8
0
100
AcDbBlockReference
  2
PBWS73-Left
 10
141.8510978852953
 20
0.0
 30
0.0
  0
INSERT
  5
C09B
330
1F
100
AcDbEntity
  8
0
100
AcDbBlockReference
  2
PBWS73-Right
 10
-143.8255824361815
 20
0.0
 30
0.0
  0
INSERT
  5
C09C
330
1F
100
AcDbEntity
  8
0
100
AcDbBlockReference
  2
PBWS73-Top
 10
0.0
 20
-321.4810989424799
 30
0.0
  0
INSERT
  5
C09D
330
1F
100
AcDbEntity
  8
0
100
AcDbBlockReference
  2
PBWS73-Bottom
 10
0.0
 20
209.0440989424794
 30
0.0
  0
INSERT
  5
C09E
330
1F
100
AcDbEntity
  8
0
100
AcDbBlockReference
  2
PBWS73-ISO
 10
144.9119056028957
 20
-420.6419807644376
 30
0.0
  0
MTEXT
  5
C09F
330
1F
100
AcDbEntity
  8
0
100
AcDbMText
 10
0.0
 20
-446.9991999998041
 30
0.0
 40
20.86506824365187
 41
0.0
 71
     5
 72
     5
  1
PBWS73Z
 73
     1
 44
1.0
1001
ACAD
1000
MTEXTBEGIN
1070
    73
1070
     1
1070
    44
1040
1.0
1070
    74
1070
     0
1000
MTEXTEND
  0
ENDSEC
  0
SECTION
  2
OBJECTS
  0
DICTIONARY
  5
C
330
0
100
AcDbDictionary
281
     1
  3
ACAD_CIP_PREVIOUS_PRODUCT_INFO
350
216
  3
ACAD_COLOR
350
6B
  3
ACAD_DETAILVIEWSTYLE
350
21B
  3
ACAD_GROUP
350
D
  3
ACAD_LAYOUT
350
1A
  3
ACAD_MATERIAL
350
6A
  3
ACAD_MLEADERSTYLE
350
12D
  3
ACAD_MLINESTYLE
350
17
  3
ACAD_PLOTSETTINGS
350
19
  3
ACAD_PLOTSTYLENAME
350
E
  3
ACAD_SCALELIST
350
10C
  3
ACAD_SECTIONVIEWSTYLE
350
219
  3
ACAD_TABLESTYLE
350
7E
  3
ACAD_VISUALSTYLE
350
EF
  3
ACDB_RECOMPOSE_DATA
350
C1A0
  3
AcDbVariableDictionary
350
5E
  3
DWGPROPS
350
C1A1
  0
DICTIONARY
  5
C0F0
330
8
100
AcDbDictionary
280
     1
281
     1
  0
DICTIONARY
  5
1FF
330
2
100
AcDbDictionary
280
     1
281
     1
  3
ACAD_LAYERSTATES
360
200
  0
DICTIONARY
  5
13C
330
10
100
AcDbDictionary
280
     1
281
     1
  0
DICTIONARY
  5
1CE
330
1F
100
AcDbDictionary
280
     1
281
     1
  3
ACAD_LAYOUTSELFREF
360
C0F8
  0
DICTIONARY
  5
C0A3
330
D2
100
AcDbDictionary
280
     1
281
     1
  3
ACAD_LAYOUTSELFREF
360
C101
  0
DICTIONARY
  5
C0A5
330
D6
100
AcDbDictionary
280
     1
281
     1
  3
ACAD_LAYOUTSELFREF
360
C104
  0
XRECORD
  5
216
102
{ACAD_REACTORS
330
C
102
}
330
C
100
AcDbXrecord
280
     1
300
ACD
300
2021
300

  0
DICTIONARY
  5
6B
102
{ACAD_REACTORS
330
C
102
}
330
C
100
AcDbDictionary
281
     1
  0
DICTIONARY
  5
21B
102
{ACAD_REACTORS
330
C
102
}
330
C
100
AcDbDictionary
281
     1
  3
Metric50
350
21C
  0
DICTIONARY
  5
D
102
{ACAD_REACTORS
330
C
102
}
330
C
100
AcDbDictionary
281
     1
  0
DICTIONARY
  5
1A
102
{ACAD_REACTORS
330
C
102
}
330
C
100
AcDbDictionary
281
     1
  3
Layout1
350
D3
  3
Layout2
350
D7
  3
Model
350
22
  0
DICTIONARY
  5
6A
102
{ACAD_REACTORS
330
C
102
}
330
C
100
AcDbDictionary
281
     1
  3
ByBlock
350
ED
  3
ByLayer
350
EC
  3
Global
350
EE
  0
DICTIONARY
  5
12D
102
{ACAD_REACTORS
330
C
102
}
330
C
100
AcDbDictionary
281
     1
  3
Standard
350
12E
  0
DICTIONARY
  5
17
102
{ACAD_REACTORS
330
C
102
}
330
C
100
AcDbDictionary
281
     1
  3
Standard
350
18
  0
DICTIONARY
  5
19
102
{ACAD_REACTORS
330
C
102
}
330
C
100
AcDbDictionary
281
     1
  0
ACDBDICTIONARYWDFLT
  5
E
102
{ACAD_REACTORS
330
C
102
}
330
C
100
AcDbDictionary
281
     1
  3
Normal
350
F
100
AcDbDictionaryWithDefault
340
F
  0
DICTIONARY
  5
10C
102
{ACAD_REACTORS
330
C
102
}
330
C
100
AcDbDictionary
281
     1
  3
A0
350
10D
  3
A1
350
1BE
  3
A2
350
1BF
  3
A3
350
1C0
  3
A4
350
1C1
  3
A5
350
1C2
  3
A6
350
1C3
  3
A7
350
1C4
  3
A8
350
1C5
  3
A9
350
1C6
  3
B0
350
1C7
  3
B1
350
1C8
  3
B2
350
1C9
  3
B3
350
1CA
  3
B4
350
1CB
  3
B5
350
1CC
  3
B6
350
1CD
  0
DICTIONARY
  5
219
102
{ACAD_REACTORS
330
C
102
}
330
C
100
AcDbDictionary
281
     1
  3
Metric50
350
21A
  0
DICTIONARY
  5
7E
102
{ACAD_REACTORS
330
C
102
}
330
C
100
AcDbDictionary
281
     1
  3
Standard
350
7F
  0
DICTIONARY
  5
EF
102
{ACAD_REACTORS
330
C
102
}
330
C
100
AcDbDictionary
281
     1
  3
2dWireframe
350
F5
  3
Basic
350
F4
  3
Brighten
350
FB
  3
ColorChange
350
FF
  3
Conceptual
350
F8
  3
Dim
350
FA
  3
EdgeColorOff
350
1E6
  3
Facepattern
350
FE
  3
Flat
350
F0
  3
FlatWithEdges
350
F1
  3
Gouraud
350
F2
  3
GouraudWithEdges
350
F3
  3
Hidden
350
F7
  3
JitterOff
350
1E4
  3
Linepattern
350
FD
  3
OverhangOff
350
1E5
  3
Realistic
350
F9
  3
Shaded
350
1F3
  3
Shaded with edges
350
1F2
  3
Shades of Gray
350
1EF
  3
Sketchy
350
1F0
  3
Thicken
350
FC
  3
Wireframe
350
F6
  3
X-Ray
350
1F1
  0
XRECORD
  5
C1A0
102
{ACAD_REACTORS
330
C
102
}
330
C
100
AcDbXrecord
280
     1
 90
        1
330
7F
  0
DICTIONARY
  5
5E
102
{ACAD_REACTORS
330
C
102
}
330
C
100
AcDbDictionary
281
     1
  3
CANNOSCALE
350
146
  3
CENTEREXE
350
259
  3
CENTERLTYPEFILE
350
25A
  3
CMLEADERSTYLE
350
145
  3
CTABLESTYLE
350
84
  3
CVIEWDETAILSTYLE
350
227
  3
CVIEWSECTIONSTYLE
350
228
  3
DIMASSOC
350
5F
  3
HIDETEXT
350
63
  3
INDEXCTL
350
C14D
  3
LAYEREVAL
350
1AE
  3
LAYERNOTIFY
350
1AF
  3
LIGHTINGUNITS
350
C14B
  3
MSLTSCALE
350
C14A
  3
PSOLHEIGHT
350
C19D
  3
PSOLWIDTH
350
C19C
  3
SORTENTS
350
C14C
  3
XCLIPFRAME
350
C19E
  0
XRECORD
  5
C1A1
102
{ACAD_REACTORS
330
C
102
}
330
C
100
AcDbXrecord
280
     1
  1
DWGPROPS COOKIE
  2

  3

  4

  6

  7

  8
tronnguyen
  9

300
=
301
=
302
=
303
=
304
=
305
=
306
=
307
=
308
=
309
=
 40
0.0048263888888889
 41
2460286.6225
 42
2460286.638043982
  1

 90
        0
  0
DICTIONARY
  5
200
102
{ACAD_REACTORS
330
1FF
102
}
330
1FF
100
AcDbDictionary
281
     1
  0
XRECORD
  5
C0F8
102
{ACAD_REACTORS
330
1CE
102
}
330
1CE
100
AcDbXrecord
280
     1
340
1F
  0
XRECORD
  5
C101
102
{ACAD_REACTORS
330
C0A3
102
}
330
C0A3
100
AcDbXrecord
280
     1
340
D2
  0
XRECORD
  5
C104
102
{ACAD_REACTORS
330
C0A5
102
}
330
C0A5
100
AcDbXrecord
280
     1
340
D6
  0
ACDBDETAILVIEWSTYLE
  5
21C
102
{ACAD_XDICTIONARY
360
C1E0
102
}
102
{ACAD_REACTORS
330
21B
102
}
330
21B
100
AcDbModelDocViewStyle
 70
     0
  3
Metric50
290
     0
100
AcDbDetailViewStyle
 70
     0
 71
     0
 90
        3
 71
     1
340
11
 40
5.0
340
0
 40
5.0
300

 40
0.0
280
     1
 71
     2
340
16
 90
       25
 71
     3
340
11
 40
5.0
 90
        0
 40
15.0
 90
        1
300
%<\AcVar ViewDetailId>% (%<\AcVar ViewScale \f "%sn">%)
 71
     4
340
16
 90
       25
340
16
 90
       25
280
     0
  0
LAYOUT
  5
D3
102
{ACAD_XDICTIONARY
360
C1A5
102
}
102
{ACAD_REACTORS
330
1A
102
}
330
1A
100
AcDbPlotSettings
  1

  2
C:\Documents and Settings\basas\Application Data\Autodesk\AutoCAD 2005\R16.1\enu\plotters\Default Windows System Printer.pc3
  4

  6

 40
0.0
 41
0.0
 42
0.0
 43
0.0
 44
0.0
 45
0.0
 46
0.0
 47
0.0
 48
0.0
 49
0.0
140
0.0
141
0.0
142
1.0
143
1.0
 70
   688
 72
     0
 73
     0
 74
     5
  7

 75
    16
147
1.0
148
0.0
149
0.0
100
AcDbLayout
  1
Layout1
 70
     1
 71
     1
 10
0.0
 20
0.0
 11
12.0
 21
9.0
 12
0.0
 22
0.0
 32
0.0
 14
0.0
 24
0.0
 34
0.0
 15
0.0
 25
0.0
 35
0.0
146
0.0
 13
0.0
 23
0.0
 33
0.0
 16
1.0
 26
0.0
 36
0.0
 17
0.0
 27
1.0
 37
0.0
 76
     0
330
D2
  0
LAYOUT
  5
D7
102
{ACAD_XDICTIONARY
360
C1A7
102
}
102
{ACAD_REACTORS
330
1A
102
}
330
1A
100
AcDbPlotSettings
  1

  2
C:\Documents and Settings\basas\Application Data\Autodesk\AutoCAD 2005\R16.1\enu\plotters\Default Windows System Printer.pc3
  4

  6

 40
0.0
 41
0.0
 42
0.0
 43
0.0
 44
0.0
 45
0.0
 46
0.0
 47
0.0
 48
0.0
 49
0.0
140
0.0
141
0.0
142
1.0
143
1.0
 70
   688
 72
     0
 73
     0
 74
     5
  7

 75
    16
147
1.0
148
0.0
149
0.0
100
AcDbLayout
  1
Layout2
 70
     1
 71
     2
 10
0.0
 20
0.0
 11
12.0
 21
9.0
 12
0.0
 22
0.0
 32
0.0
 14
0.0
 24
0.0
 34
0.0
 15
0.0
 25
0.0
 35
0.0
146
0.0
 13
0.0
 23
0.0
 33
0.0
 16
1.0
 26
0.0
 36
0.0
 17
0.0
 27
1.0
 37
0.0
 76
     0
330
D6
  0
LAYOUT
  5
22
102
{ACAD_XDICTIONARY
360
C1A2
102
}
102
{ACAD_REACTORS
330
1A
102
}
330
1A
100
AcDbPlotSettings
  1

  2
none_device
  4
ISO_A4_(210.00_x_297.00_MM)
  6

 40
7.5
 41
20.0
 42
7.5
 43
20.0
 44
210.0
 45
297.0
 46
11.54999923706054
 47
-13.65000009536743
 48
0.0
 49
0.0
140
0.0
141
0.0
142
1.0
143
8.704084754739808
 70
 11952
 72
     1
 73
     0
 74
     0
  7

 75
     0
147
0.1148885871608098
148
0.0
149
0.0
100
AcDbLayout
  1
Model
 70
     1
 71
     0
 10
0.0
 20
0.0
 11
12.0
 21
9.0
 12
0.0
 22
0.0
 32
0.0
 14
0.0
 24
0.0
 34
0.0
 15
0.0
 25
0.0
 35
0.0
146
0.0
 13
0.0
 23
0.0
 33
0.0
 16
1.0
 26
0.0
 36
0.0
 17
0.0
 27
1.0
 37
0.0
 76
     0
330
1F
331
EA
1001
ACAD_PSEXT
1000
None
1000
None
1000
Not applicable
1000
The layout will not be plotted unless a new plotter configuration name is selected.
1070
     0
  0
MATERIAL
  5
ED
102
{ACAD_XDICTIONARY
360
1F9
102
}
102
{ACAD_REACTORS
330
6A
102
}
330
6A
100
AcDbMaterial
  1
ByBlock
  0
MATERIAL
  5
EC
102
{ACAD_XDICTIONARY
360
1F7
102
}
102
{ACAD_REACTORS
330
6A
102
}
330
6A
100
AcDbMaterial
  1
ByLayer
  0
MATERIAL
  5
EE
102
{ACAD_XDICTIONARY
360
173
102
}
102
{ACAD_REACTORS
330
6A
102
}
330
6A
100
AcDbMaterial
  1
Global
 43
0.0007999999797903
 43
0.0
 43
0.0
 43
0.0
 43
0.0
 43
0.0007999999797903
 43
0.0
 43
0.0
 43
0.0
 43
0.0
 43
1.0
 43
0.0
 43
0.0
 43
0.0
 43
0.0
 43
1.0
 49
0.0007999999797903
 49
0.0
 49
0.0
 49
0.0
 49
0.0
 49
0.0007999999797903
 49
0.0
 49
0.0
 49
0.0
 49
0.0
 49
1.0
 49
0.0
 49
0.0
 49
0.0
 49
0.0
 49
1.0
142
0.0007999999797903
142
0.0
142
0.0
142
0.0
142
0.0
142
0.0007999999797903
142
0.0
142
0.0
142
0.0
142
0.0
142
1.0
142
0.0
142
0.0
142
0.0
142
0.0
142
1.0
144
0.0007999999797903
144
0.0
144
0.0
144
0.0
144
0.0
144
0.0007999999797903
144
0.0
144
0.0
144
0.0
144
0.0
144
1.0
144
0.0
144
0.0
144
0.0
144
0.0
144
1.0
1001
ACAD
1070
    -1
1070
     3
1070
     0
1000

1071
        0
1070
     0
  0
MLEADERSTYLE
  5
12E
102
{ACAD_XDICTIONARY
360
C1CC
102
}
102
{ACAD_REACTORS
330
12D
102
}
330
12D
100
AcDbMLeaderStyle
170
     2
171
     1
172
     0
 90
        2
 40
0.0
 41
0.0
173
     1
 91
-1056964608
340
14
 92
       -2
290
     1
 42
2.0
291
     1
 43
8.0
  3
Standard
 44
4.0
300

342
11
174
     1
178
     1
175
     1
176
     0
 93
-1056964608
 45
4.0
292
     0
297
     0
 46
4.0
 94
-1056964608
 47
1.0
 49
1.0
140
1.0
293
     1
141
0.0
294
     1
177
     0
142
1.0
295
     0
296
     0
143
3.75
1001
ACAD_MLEADERVER
1070
     2
  0
MLINESTYLE
  5
18
102
{ACAD_REACTORS
330
17
102
}
330
17
100
AcDbMlineStyle
  2
STANDARD
 70
     0
  3

 62
   256
 51
90.0
 52
90.0
 71
     2
 49
0.5
 62
   256
  6
BYLAYER
 49
-0.5
 62
   256
  6
BYLAYER
  0
ACDBPLACEHOLDER
  5
F
102
{ACAD_REACTORS
330
E
102
}
330
E
  0
SCALE
  5
10D
102
{ACAD_REACTORS
330
10C
102
}
330
10C
100
AcDbScale
 70
     0
300
1:1
140
1.0
141
1.0
290
     1
  0
SCALE
  5
1BE
102
{ACAD_REACTORS
330
10C
102
}
330
10C
100
AcDbScale
 70
     0
300
1:2
140
1.0
141
2.0
290
     0
  0
SCALE
  5
1BF
102
{ACAD_REACTORS
330
10C
102
}
330
10C
100
AcDbScale
 70
     0
300
1:4
140
1.0
141
4.0
290
     0
  0
SCALE
  5
1C0
102
{ACAD_REACTORS
330
10C
102
}
330
10C
100
AcDbScale
 70
     0
300
1:5
140
1.0
141
5.0
290
     0
  0
SCALE
  5
1C1
102
{ACAD_REACTORS
330
10C
102
}
330
10C
100
AcDbScale
 70
     0
300
1:8
140
1.0
141
8.0
290
     0
  0
SCALE
  5
1C2
102
{ACAD_REACTORS
330
10C
102
}
330
10C
100
AcDbScale
 70
     0
300
1:10
140
1.0
141
10.0
290
     0
  0
SCALE
  5
1C3
102
{ACAD_REACTORS
330
10C
102
}
330
10C
100
AcDbScale
 70
     0
300
1:16
140
1.0
141
16.0
290
     0
  0
SCALE
  5
1C4
102
{ACAD_REACTORS
330
10C
102
}
330
10C
100
AcDbScale
 70
     0
300
1:20
140
1.0
141
20.0
290
     0
  0
SCALE
  5
1C5
102
{ACAD_REACTORS
330
10C
102
}
330
10C
100
AcDbScale
 70
     0
300
1:30
140
1.0
141
30.0
290
     0
  0
SCALE
  5
1C6
102
{ACAD_REACTORS
330
10C
102
}
330
10C
100
AcDbScale
 70
     0
300
1:40
140
1.0
141
40.0
290
     0
  0
SCALE
  5
1C7
102
{ACAD_REACTORS
330
10C
102
}
330
10C
100
AcDbScale
 70
     0
300
1:50
140
1.0
141
50.0
290
     0
  0
SCALE
  5
1C8
102
{ACAD_REACTORS
330
10C
102
}
330
10C
100
AcDbScale
 70
     0
300
1:100
140
1.0
141
100.0
290
     0
  0
SCALE
  5
1C9
102
{ACAD_REACTORS
330
10C
102
}
330
10C
100
AcDbScale
 70
     0
300
2:1
140
2.0
141
1.0
290
     0
  0
SCALE
  5
1CA
102
{ACAD_REACTORS
330
10C
102
}
330
10C
100
AcDbScale
 70
     0
300
4:1
140
4.0
141
1.0
290
     0
  0
SCALE
  5
1CB
102
{ACAD_REACTORS
330
10C
102
}
330
10C
100
AcDbScale
 70
     0
300
8:1
140
8.0
141
1.0
290
     0
  0
SCALE
  5
1CC
102
{ACAD_REACTORS
330
10C
102
}
330
10C
100
AcDbScale
 70
     0
300
10:1
140
10.0
141
1.0
290
     0
  0
SCALE
  5
1CD
102
{ACAD_REACTORS
330
10C
102
}
330
10C
100
AcDbScale
 70
     0
300
100:1
140
100.0
141
1.0
290
     0
  0
ACDBSECTIONVIEWSTYLE
  5
21A
102
{ACAD_XDICTIONARY
360
C1DE
102
}
102
{ACAD_REACTORS
330
219
102
}
330
219
100
AcDbModelDocViewStyle
 70
     0
  3
Metric50
290
     0
100
AcDbSectionViewStyle
 70
     0
 71
     0
 90
      102
 71
     1
340
11
 40
5.0
340
0
340
0
 40
5.0
300
I, O, Q, S, X, Z
 40
10.0
 90
        0
 40
2.5
 90
        0
 71
     2
340
16
 90
       25
340
16
 90
       50
 40
5.0
 40
2.5
 40
5.0
 71
     3
340
11
 40
5.0
 90
        0
 40
15.0
 90
        1
300
%<\AcVar ViewSectionStartId>%-%<\AcVar ViewSectionEndId>% (%<\AcVar ViewScale \f "%sn">%)
 71
     4
300
ANSI31
 40
1.0
 90
        0
290
     0
290
     0
 90
        6
 40
0.0
 40
1.570796326794896
 40
0.2617993877991494
 40
1.308996938995747
 40
-0.2617993877991494
 40
1.832595714594046
  0
TABLESTYLE
  5
7F
102
{ACAD_XDICTIONARY
360
162
102
}
102
{ACAD_REACTORS
330
7E
102
}
330
7E
100
AcDbTableStyle
  3
Standard
 70
     0
 71
     0
 40
1.5
 41
1.5
280
     0
281
     0
  7
Standard
140
4.5
170
     2
 62
     0
 63
     7
283
     0
274
    -2
284
     1
 64
     0
275
    -2
285
     1
 65
     0
276
    -2
286
     1
 66
     0
277
    -2
287
     1
 67
     0
278
    -2
288
     1
 68
     0
279
    -2
289
     1
 69
     0
  7
Standard
140
6.0
170
     5
 62
     0
 63
     7
283
     0
274
    -2
284
     1
 64
     0
275
    -2
285
     1
 65
     0
276
    -2
286
     1
 66
     0
277
    -2
287
     1
 67
     0
278
    -2
288
     1
 68
     0
279
    -2
289
     1
 69
     0
  7
Standard
140
4.5
170
     5
 62
     0
 63
     7
283
     0
274
    -2
284
     1
 64
     0
275
    -2
285
     1
 65
     0
276
    -2
286
     1
 66
     0
277
    -2
287
     1
 67
     0
278
    -2
288
     1
 68
     0
279
    -2
289
     1
 69
     0
  0
VISUALSTYLE
  5
F5
102
{ACAD_XDICTIONARY
360
C1B6
102
}
102
{ACAD_REACTORS
330
EF
102
}
330
EF
100
AcDbVisualStyle
  2
2dWireframe
 70
     4
 71
     0
 72
     2
 73
     1
 90
        0
 40
-0.6
 41
-30.0
 62
     5
 63
     7
 74
     1
 91
        4
 64
     7
 65
   257
 75
     1
175
     1
 42
1.0
 92
        0
 66
   257
 43
1.0
 76
     1
 77
     6
 78
     2
 67
     7
 79
     5
170
     0
171
     0
290
     0
174
     0
 93
        1
 44
0.0
173
     0
291
     0
 45
0.0
1001
ACAD
1000
AcDbSavedByObjectVersion
1070
     0
  0
VISUALSTYLE
  5
F4
102
{ACAD_XDICTIONARY
360
C1B4
102
}
102
{ACAD_REACTORS
330
EF
102
}
330
EF
100
AcDbVisualStyle
  2
Basic
 70
     7
 71
     1
 72
     0
 73
     1
 90
        0
 40
-0.6
 41
-30.0
 62
     5
 63
     7
 74
     0
 91
        4
 64
     7
 65
   257
 75
     1
175
     1
 42
1.0
 92
        8
 66
     7
 43
1.0
 76
     1
 77
     6
 78
     2
 67
     7
 79
     5
170
     0
171
     0
290
     0
174
     0
 93
        1
 44
0.0
173
     0
291
     1
 45
0.0
1001
ACAD
1000
AcDbSavedByObjectVersion
1070
     0
  0
VISUALSTYLE
  5
FB
102
{ACAD_XDICTIONARY
360
C1C2
102
}
102
{ACAD_REACTORS
330
EF
102
}
330
EF
100
AcDbVisualStyle
  2
Brighten
 70
    12
 71
     2
 72
     2
 73
     1
 90
        0
 40
-0.6
 41
-30.0
 62
     5
 63
     7
 74
     1
 91
        4
 64
     7
 65
   257
 75
     1
175
     1
 42
1.0
 92
        8
 66
     7
 43
1.0
 76
     1
 77
     6
 78
     2
 67
     7
 79
     5
170
     0
171
     0
290
     0
174
     0
 93
        1
 44
50.0
173
     0
291
     1
 45
0.0
1001
ACAD
1000
AcDbSavedByObjectVersion
1070
     0
  0
VISUALSTYLE
  5
FF
102
{ACAD_XDICTIONARY
360
C1CA
102
}
102
{ACAD_REACTORS
330
EF
102
}
330
EF
100
AcDbVisualStyle
  2
ColorChange
 70
    16
 71
     2
 72
     2
 73
     3
 90
        0
 40
-0.6
 41
-30.0
 62
     5
 63
     8
 74
     1
 91
        4
 64
     7
 65
   257
 75
     1
175
     1
 42
1.0
 92
        8
 66
     8
 43
1.0
 76
     1
 77
     6
 78
     2
 67
     7
 79
     5
170
     0
171
     0
290
     0
174
     0
 93
        1
 44
0.0
173
     0
291
     1
 45
0.0
1001
ACAD
1000
AcDbSavedByObjectVersion
1070
     0
  0
VISUALSTYLE
  5
F8
102
{ACAD_XDICTIONARY
360
C1BC
102
}
102
{ACAD_REACTORS
330
EF
102
}
330
EF
100
AcDbVisualStyle
  2
Conceptual
 70
     9
 71
     3
 72
     2
 73
     1
 90
        0
 40
-0.6
 41
-30.0
 62
     5
 63
     7
 74
     2
 91
        2
 64
     7
 65
   257
 75
     1
175
     1
 42
40.0
 92
        8
 66
     7
 43
1.0
 76
     1
 77
     6
 78
     2
 67
     7
 79
     3
170
     0
171
     0
290
     0
174
     0
 93
        1
 44
0.0
173
     0
291
     0
 45
0.0
1001
ACAD
1000
AcDbSavedByObjectVersion
1070
     0
  0
VISUALSTYLE
  5
FA
102
{ACAD_XDICTIONARY
360
C1C0
102
}
102
{ACAD_REACTORS
330
EF
102
}
330
EF
100
AcDbVisualStyle
  2
Dim
 70
    11
 71
     2
 72
     2
 73
     1
 90
        0
 40
-0.6
 41
-30.0
 62
     5
 63
     7
 74
     1
 91
        4
 64
     7
 65
   257
 75
     1
175
     1
 42
1.0
 92
        8
 66
     7
 43
1.0
 76
     1
 77
     6
 78
     2
 67
     7
 79
     5
170
     0
171
     0
290
     0
174
     0
 93
        1
 44
-50.0
173
     0
291
     1
 45
0.0
1001
ACAD
1000
AcDbSavedByObjectVersion
1070
     0
  0
VISUALSTYLE
  5
1E6
102
{ACAD_XDICTIONARY
360
C1D2
102
}
102
{ACAD_REACTORS
330
EF
102
}
330
EF
100
AcDbVisualStyle
  2
EdgeColorOff
 70
    22
 71
     2
 72
     2
 73
     0
 90
        0
 40
-0.6
 41
-30.0
 62
     5
 63
     7
 74
     1
 91
        4
 64
     7
 65
   257
 75
     1
175
     1
 42
1.0
 92
        8
 66
     7
 43
1.0
 76
     1
 77
     6
 78
     2
 67
     7
 79
     5
170
     0
171
     0
290
     0
174
     0
 93
        1
 44
0.0
173
     0
291
     1
 45
0.0
1001
ACAD
1000
AcDbSavedByObjectVersion
1070
     0
  0
VISUALSTYLE
  5
FE
102
{ACAD_XDICTIONARY
360
C1C8
102
}
102
{ACAD_REACTORS
330
EF
102
}
330
EF
100
AcDbVisualStyle
  2
Facepattern
 70
    15
 71
     2
 72
     2
 73
     1
 90
        0
 40
-0.6
 41
-30.0
 62
     5
 63
     7
 74
     1
 91
        4
 64
     7
 65
   257
 75
     1
175
     1
 42
1.0
 92
        8
 66
     7
 43
1.0
 76
     1
 77
     6
 78
     2
 67
     7
 79
     5
170
     0
171
     0
290
     0
174
     0
 93
        1
 44
0.0
173
     0
291
     1
 45
0.0
1001
ACAD
1000
AcDbSavedByObjectVersion
1070
     0
  0
VISUALSTYLE
  5
F0
102
{ACAD_XDICTIONARY
360
C1AC
102
}
102
{ACAD_REACTORS
330
EF
102
}
330
EF
100
AcDbVisualStyle
  2
Flat
 70
     0
 71
     2
 72
     1
 73
     1
 90
        2
 40
-0.6
 41
30.0
 62
     5
 63
     7
 74
     0
 91
        0
 64
     7
 65
   257
 75
     1
175
     1
 42
1.0
 92
        8
 66
     7
 43
1.0
 76
     1
 77
     6
 78
     2
 67
     7
 79
     5
170
     0
171
     0
290
     0
174
     0
 93
       13
 44
0.0
173
     0
291
     1
 45
0.0
1001
ACAD
1000
AcDbSavedByObjectVersion
1070
     0
  0
VISUALSTYLE
  5
F1
102
{ACAD_XDICTIONARY
360
C1AE
102
}
102
{ACAD_REACTORS
330
EF
102
}
330
EF
100
AcDbVisualStyle
  2
FlatWithEdges
 70
     1
 71
     2
 72
     1
 73
     1
 90
        2
 40
-0.6
 41
30.0
 62
     5
 63
     7
 74
     1
 91
        0
 64
     7
 65
   257
 75
     1
175
     1
 42
1.0
 92
        0
 66
   257
 43
1.0
 76
     1
 77
     6
 78
     2
 67
     7
 79
     5
170
     0
171
     0
290
     0
174
     0
 93
       13
 44
0.0
173
     0
291
     1
 45
0.0
1001
ACAD
1000
AcDbSavedByObjectVersion
1070
     0
  0
VISUALSTYLE
  5
F2
102
{ACAD_XDICTIONARY
360
C1B0
102
}
102
{ACAD_REACTORS
330
EF
102
}
330
EF
100
AcDbVisualStyle
  2
Gouraud
 70
     2
 71
     2
 72
     2
 73
     1
 90
        2
 40
-0.6
 41
30.0
 62
     5
 63
     7
 74
     0
 91
        0
 64
     7
 65
   257
 75
     1
175
     1
 42
1.0
 92
        0
 66
     7
 43
1.0
 76
     1
 77
     6
 78
     2
 67
     7
 79
     5
170
     0
171
     0
290
     0
174
     0
 93
       13
 44
0.0
173
     0
291
     1
 45
0.0
1001
ACAD
1000
AcDbSavedByObjectVersion
1070
     0
  0
VISUALSTYLE
  5
F3
102
{ACAD_XDICTIONARY
360
C1B2
102
}
102
{ACAD_REACTORS
330
EF
102
}
330
EF
100
AcDbVisualStyle
  2
GouraudWithEdges
 70
     3
 71
     2
 72
     2
 73
     1
 90
        2
 40
-0.6
 41
30.0
 62
     5
 63
     7
 74
     1
 91
        0
 64
     7
 65
   257
 75
     1
175
     1
 42
1.0
 92
        0
 66
   257
 43
1.0
 76
     1
 77
     6
 78
     2
 67
     7
 79
     5
170
     0
171
     0
290
     0
174
     0
 93
       13
 44
0.0
173
     0
291
     1
 45
0.0
1001
ACAD
1000
AcDbSavedByObjectVersion
1070
     0
  0
VISUALSTYLE
  5
F7
102
{ACAD_XDICTIONARY
360
C1BA
102
}
102
{ACAD_REACTORS
330
EF
102
}
330
EF
100
AcDbVisualStyle
  2
Hidden
 70
     6
 71
     1
 72
     2
 73
     2
 90
        0
 40
-0.6
 41
-30.0
 62
     5
 63
     7
 74
     2
 91
        2
 64
     7
 65
   257
 75
     2
175
     1
 42
40.0
 92
        0
 66
   257
 43
1.0
 76
     1
 77
     6
 78
     2
 67
     7
 79
     3
170
     0
171
     0
290
     0
174
     0
 93
        1
 44
0.0
173
     0
291
     0
 45
0.0
1001
ACAD
1000
AcDbSavedByObjectVersion
1070
     0
  0
VISUALSTYLE
  5
1E4
102
{ACAD_XDICTIONARY
360
C1CE
102
}
102
{ACAD_REACTORS
330
EF
102
}
330
EF
100
AcDbVisualStyle
  2
JitterOff
 70
    20
 71
     2
 72
     2
 73
     0
 90
        0
 40
-0.6
 41
-30.0
 62
     5
 63
     7
 74
     1
 91
        4
 64
     7
 65
   257
 75
     1
175
     1
 42
1.0
 92
       10
 66
     7
 43
1.0
 76
     1
 77
     6
 78
     2
 67
     7
 79
     5
170
     0
171
     0
290
     0
174
     0
 93
        1
 44
0.0
173
     0
291
     1
 45
0.0
1001
ACAD
1000
AcDbSavedByObjectVersion
1070
     0
  0
VISUALSTYLE
  5
FD
102
{ACAD_XDICTIONARY
360
C1C6
102
}
102
{ACAD_REACTORS
330
EF
102
}
330
EF
100
AcDbVisualStyle
  2
Linepattern
 70
    14
 71
     2
 72
     2
 73
     1
 90
        0
 40
-0.6
 41
-30.0
 62
     5
 63
     7
 74
     1
 91
        4
 64
     7
 65
   257
 75
     7
175
     7
 42
1.0
 92
        8
 66
     7
 43
1.0
 76
     1
 77
     6
 78
     2
 67
     7
 79
     5
170
     0
171
     0
290
     0
174
     0
 93
        1
 44
0.0
173
     0
291
     1
 45
0.0
1001
ACAD
1000
AcDbSavedByObjectVersion
1070
     0
  0
VISUALSTYLE
  5
1E5
102
{ACAD_XDICTIONARY
360
C1D0
102
}
102
{ACAD_REACTORS
330
EF
102
}
330
EF
100
AcDbVisualStyle
  2
OverhangOff
 70
    21
 71
     2
 72
     2
 73
     0
 90
        0
 40
-0.6
 41
-30.0
 62
     5
 63
     7
 74
     1
 91
        4
 64
     7
 65
   257
 75
     1
175
     1
 42
1.0
 92
        9
 66
     7
 43
1.0
 76
     1
 77
     6
 78
     2
 67
     7
 79
     5
170
     0
171
     0
290
     0
174
     0
 93
        1
 44
0.0
173
     0
291
     1
 45
0.0
1001
ACAD
1000
AcDbSavedByObjectVersion
1070
     0
  0
VISUALSTYLE
  5
F9
102
{ACAD_XDICTIONARY
360
C1BE
102
}
102
{ACAD_REACTORS
330
EF
102
}
330
EF
100
AcDbVisualStyle
  2
Realistic
 70
     8
 71
     2
 72
     2
 73
     0
 90
        2
 40
-0.6
 41
30.0
 62
     5
 63
     7
 74
     0
 91
        0
 64
     7
 65
   257
 75
     1
175
     1
 42
1.0
 92
        8
 66
   257
 43
1.0
 76
     1
 77
     6
 78
     2
 67
     7
 79
     3
170
     0
171
     0
290
     0
174
     0
 93
       13
 44
0.0
173
     0
291
     0
 45
0.0
1001
ACAD
1000
AcDbSavedByObjectVersion
1070
     0
  0
VISUALSTYLE
  5
1F3
102
{ACAD_XDICTIONARY
360
C1DC
102
}
102
{ACAD_REACTORS
330
EF
102
}
330
EF
100
AcDbVisualStyle
  2
Shaded
 70
    27
 71
     2
 72
     2
 73
     1
 90
        2
 40
-0.6
 41
30.0
 62
     5
 63
     7
 74
     0
 91
        4
 64
     7
 65
   257
 75
     1
175
     1
 42
1.0
 92
        8
 66
   257
 43
1.0
 76
     1
 77
     6
 78
     2
 67
     8
 79
     3
170
     0
171
     0
290
     0
174
     0
 93
        5
 44
0.0
173
     0
291
     0
 45
0.0
1001
ACAD
1000
AcDbSavedByObjectVersion
1070
     0
  0
VISUALSTYLE
  5
1F2
102
{ACAD_XDICTIONARY
360
C1DA
102
}
102
{ACAD_REACTORS
330
EF
102
}
330
EF
100
AcDbVisualStyle
  2
Shaded with edges
 70
    26
 71
     2
 72
     2
 73
     1
 90
        2
 40
-0.6
 41
30.0
 62
     5
 63
     7
 74
     1
 91
        2
 64
     7
 65
   257
 75
     2
175
     1
 42
1.0
 92
        8
 66
   257
 43
1.0
 76
     1
 77
     6
 78
     2
 67
     7
 79
     3
170
     0
171
     0
290
     0
174
     0
 93
        5
 44
0.0
173
     0
291
     0
 45
0.0
1001
ACAD
1000
AcDbSavedByObjectVersion
1070
     0
  0
VISUALSTYLE
  5
1EF
102
{ACAD_XDICTIONARY
360
C1D4
102
}
102
{ACAD_REACTORS
330
EF
102
}
330
EF
100
AcDbVisualStyle
  2
Shades of Gray
 70
    23
 71
     2
 72
     2
 73
     3
 90
        0
 40
-0.6
 41
-30.0
 62
     5
 63
     7
 74
     2
 91
        2
 64
     7
 65
     7
 75
     1
175
     1
 42
40.0
 92
        8
 66
     7
 43
1.0
 76
     1
 77
     6
 78
     2
 67
     7
 79
     3
170
     0
171
     0
290
     0
174
     0
 93
        1
 44
0.0
173
     0
291
     0
 45
0.0
1001
ACAD
1000
AcDbSavedByObjectVersion
1070
     0
  0
VISUALSTYLE
  5
1F0
102
{ACAD_XDICTIONARY
360
C1D6
102
}
102
{ACAD_REACTORS
330
EF
102
}
330
EF
100
AcDbVisualStyle
  2
Sketchy
 70
    24
 71
     1
 72
     2
 73
     2
 90
        0
 40
-0.6
 41
-30.0
 62
     5
 63
     7
 74
     2
 91
        2
 64
     7
 65
     7
 75
     1
175
     1
 42
40.0
 92
       11
 66
     7
 43
1.0
 76
     1
 77
     6
 78
     2
 67
     7
 79
     6
170
     0
171
     0
290
     0
174
     0
 93
        1
 44
0.0
173
     0
291
     0
 45
0.0
1001
ACAD
1000
AcDbSavedByObjectVersion
1070
     0
  0
VISUALSTYLE
  5
FC
102
{ACAD_XDICTIONARY
360
C1C4
102
}
102
{ACAD_REACTORS
330
EF
102
}
330
EF
100
AcDbVisualStyle
  2
Thicken
 70
    13
 71
     2
 72
     2
 73
     1
 90
        0
 40
-0.6
 41
-30.0
 62
     5
 63
     7
 74
     1
 91
        4
 64
     7
 65
   257
 75
     1
175
     1
 42
1.0
 92
       12
 66
     7
 43
1.0
 76
     1
 77
     6
 78
     2
 67
     7
 79
     5
170
     0
171
     0
290
     0
174
     0
 93
        1
 44
0.0
173
     0
291
     1
 45
0.0
1001
ACAD
1000
AcDbSavedByObjectVersion
1070
     0
  0
VISUALSTYLE
  5
F6
102
{ACAD_XDICTIONARY
360
C1B8
102
}
102
{ACAD_REACTORS
330
EF
102
}
330
EF
100
AcDbVisualStyle
  2
Wireframe
 70
     5
 71
     0
 72
     2
 73
     0
 90
        0
 40
-0.6
 41
-30.0
 62
     5
 63
     7
 74
     1
 91
        4
 64
     7
 65
   257
 75
     1
175
     1
 42
1.0
 92
        0
 66
   257
 43
1.0
 76
     1
 77
     6
 78
     2
 67
     7
 79
     3
170
     0
171
     0
290
     0
174
     0
 93
        1
 44
0.0
173
     0
291
     0
 45
0.0
1001
ACAD
1000
AcDbSavedByObjectVersion
1070
     0
  0
VISUALSTYLE
  5
1F1
102
{ACAD_XDICTIONARY
360
C1D8
102
}
102
{ACAD_REACTORS
330
EF
102
}
330
EF
100
AcDbVisualStyle
  2
X-Ray
 70
    25
 71
     2
 72
     2
 73
     1
 90
        1
 40
0.5
 41
-30.0
 62
     5
 63
     7
 74
     1
 91
        0
 64
     7
 65
   257
 75
     1
175
     1
 42
1.0
 92
        8
 66
     7
 43
1.0
 76
     1
 77
     6
 78
     2
 67
     7
 79
     3
170
     0
171
     0
290
     0
174
     0
 93
       13
 44
0.0
173
     0
291
     0
 45
0.0
1001
ACAD
1000
AcDbSavedByObjectVersion
1070
     0
  0
DICTIONARYVAR
  5
146
102
{ACAD_REACTORS
330
5E
102
}
330
5E
100
DictionaryVariables
280
     0
  1
1:1
  0
DICTIONARYVAR
  5
259
102
{ACAD_REACTORS
330
5E
102
}
330
5E
100
DictionaryVariables
280
     0
  1
3.500000
  0
DICTIONARYVAR
  5
25A
102
{ACAD_REACTORS
330
5E
102
}
330
5E
100
DictionaryVariables
280
     0
  1
acadiso.lin
  0
DICTIONARYVAR
  5
145
102
{ACAD_REACTORS
330
5E
102
}
330
5E
100
DictionaryVariables
280
     0
  1
STANDARD
  0
DICTIONARYVAR
  5
84
102
{ACAD_REACTORS
330
5E
102
}
330
5E
100
DictionaryVariables
280
     0
  1
STANDARD
  0
DICTIONARYVAR
  5
227
102
{ACAD_REACTORS
330
5E
102
}
330
5E
100
DictionaryVariables
280
     0
  1
Metric50
  0
DICTIONARYVAR
  5
228
102
{ACAD_REACTORS
330
5E
102
}
330
5E
100
DictionaryVariables
280
     0
  1
Metric50
  0
DICTIONARYVAR
  5
5F
102
{ACAD_REACTORS
330
5E
102
}
330
5E
100
DictionaryVariables
280
     0
  1
2
  0
DICTIONARYVAR
  5
63
102
{ACAD_REACTORS
330
5E
102
}
330
5E
100
DictionaryVariables
280
     0
  1
1
  0
DICTIONARYVAR
  5
C14D
102
{ACAD_REACTORS
330
5E
102
}
330
5E
100
DictionaryVariables
280
     0
  1
0
  0
DICTIONARYVAR
  5
1AE
102
{ACAD_REACTORS
330
5E
102
}
330
5E
100
DictionaryVariables
280
     0
  1
0
  0
DICTIONARYVAR
  5
1AF
102
{ACAD_REACTORS
330
5E
102
}
330
5E
100
DictionaryVariables
280
     0
  1
0
  0
DICTIONARYVAR
  5
C14B
102
{ACAD_REACTORS
330
5E
102
}
330
5E
100
DictionaryVariables
280
     0
  1
2
  0
DICTIONARYVAR
  5
C14A
102
{ACAD_REACTORS
330
5E
102
}
330
5E
100
DictionaryVariables
280
     0
  1
1
  0
DICTIONARYVAR
  5
C19D
102
{ACAD_REACTORS
330
5E
102
}
330
5E
100
DictionaryVariables
280
     0
  1
80.000000
  0
DICTIONARYVAR
  5
C19C
102
{ACAD_REACTORS
330
5E
102
}
330
5E
100
DictionaryVariables
280
     0
  1
5.000000
  0
DICTIONARYVAR
  5
C14C
102
{ACAD_REACTORS
330
5E
102
}
330
5E
100
DictionaryVariables
280
     0
  1
127
  0
DICTIONARYVAR
  5
C19E
102
{ACAD_REACTORS
330
5E
102
}
330
5E
100
DictionaryVariables
280
     0
  1
2
  0
DICTIONARY
  5
C1E0
330
21C
100
AcDbDictionary
280
     1
281
     1
  3
ACAD_XREC_ROUNDTRIP
360
C1E1
  0
DICTIONARY
  5
C1A5
330
D3
100
AcDbDictionary
280
     1
281
     1
  3
ACAD_XREC_ROUNDTRIP
360
C1A6
  0
DICTIONARY
  5
C1A7
330
D7
100
AcDbDictionary
280
     1
281
     1
  3
ACAD_XREC_ROUNDTRIP
360
C1A8
  0
DICTIONARY
  5
C1A2
330
22
100
AcDbDictionary
280
     1
281
     1
  3
ACAD_XREC_ROUNDTRIP
360
C1A3
  0
DICTIONARY
  5
1F9
330
ED
100
AcDbDictionary
280
     1
281
     1
  3
ACAD_XREC_ROUNDTRIP
360
C1AA
  3
FBXASSET
360
1FA
  0
DICTIONARY
  5
1F7
330
EC
100
AcDbDictionary
280
     1
281
     1
  3
ACAD_XREC_ROUNDTRIP
360
C1A9
  3
FBXASSET
360
1F8
  0
DICTIONARY
  5
173
330
EE
100
AcDbDictionary
280
     1
281
     1
  3
ACAD_XREC_ROUNDTRIP
360
C1AB
  3
BUMPTILE
360
175
  3
DIFFUSETILE
360
174
  3
FBXASSET
360
1FB
  3
OPACITYTILE
360
176
  3
REFLECTIONTILE
360
177
  0
DICTIONARY
  5
C1CC
330
12E
100
AcDbDictionary
280
     1
281
     1
  3
ACAD_XREC_ROUNDTRIP
360
C1CD
  0
DICTIONARY
  5
C1DE
330
21A
100
AcDbDictionary
280
     1
281
     1
  3
ACAD_XREC_ROUNDTRIP
360
C1DF
  0
DICTIONARY
  5
162
330
7F
100
AcDbDictionary
280
     1
281
     1
  3
ACAD_ROUNDTRIP_2008_TABLESTYLE_CELLSTYLEMAP
360
C19F
  3
ACAD_XREC_ROUNDTRIP
360
C1A4
  0
DICTIONARY
  5
C1B6
330
F5
100
AcDbDictionary
280
     1
281
     1
  3
ACAD_XREC_ROUNDTRIP
360
C1B7
  0
DICTIONARY
  5
C1B4
330
F4
100
AcDbDictionary
280
     1
281
     1
  3
ACAD_XREC_ROUNDTRIP
360
C1B5
  0
DICTIONARY
  5
C1C2
330
FB
100
AcDbDictionary
280
     1
281
     1
  3
ACAD_XREC_ROUNDTRIP
360
C1C3
  0
DICTIONARY
  5
C1CA
330
FF
100
AcDbDictionary
280
     1
281
     1
  3
ACAD_XREC_ROUNDTRIP
360
C1CB
  0
DICTIONARY
  5
C1BC
330
F8
100
AcDbDictionary
280
     1
281
     1
  3
ACAD_XREC_ROUNDTRIP
360
C1BD
  0
DICTIONARY
  5
C1C0
330
FA
100
AcDbDictionary
280
     1
281
     1
  3
ACAD_XREC_ROUNDTRIP
360
C1C1
  0
DICTIONARY
  5
C1D2
330
1E6
100
AcDbDictionary
280
     1
281
     1
  3
ACAD_XREC_ROUNDTRIP
360
C1D3
  0
DICTIONARY
  5
C1C8
330
FE
100
AcDbDictionary
280
     1
281
     1
  3
ACAD_XREC_ROUNDTRIP
360
C1C9
  0
DICTIONARY
  5
C1AC
330
F0
100
AcDbDictionary
280
     1
281
     1
  3
ACAD_XREC_ROUNDTRIP
360
C1AD
  0
DICTIONARY
  5
C1AE
330
F1
100
AcDbDictionary
280
     1
281
     1
  3
ACAD_XREC_ROUNDTRIP
360
C1AF
  0
DICTIONARY
  5
C1B0
330
F2
100
AcDbDictionary
280
     1
281
     1
  3
ACAD_XREC_ROUNDTRIP
360
C1B1
  0
DICTIONARY
  5
C1B2
330
F3
100
AcDbDictionary
280
     1
281
     1
  3
ACAD_XREC_ROUNDTRIP
360
C1B3
  0
DICTIONARY
  5
C1BA
330
F7
100
AcDbDictionary
280
     1
281
     1
  3
ACAD_XREC_ROUNDTRIP
360
C1BB
  0
DICTIONARY
  5
C1CE
330
1E4
100
AcDbDictionary
280
     1
281
     1
  3
ACAD_XREC_ROUNDTRIP
360
C1CF
  0
DICTIONARY
  5
C1C6
330
FD
100
AcDbDictionary
280
     1
281
     1
  3
ACAD_XREC_ROUNDTRIP
360
C1C7
  0
DICTIONARY
  5
C1D0
330
1E5
100
AcDbDictionary
280
     1
281
     1
  3
ACAD_XREC_ROUNDTRIP
360
C1D1
  0
DICTIONARY
  5
C1BE
330
F9
100
AcDbDictionary
280
     1
281
     1
  3
ACAD_XREC_ROUNDTRIP
360
C1BF
  0
DICTIONARY
  5
C1DC
330
1F3
100
AcDbDictionary
280
     1
281
     1
  3
ACAD_XREC_ROUNDTRIP
360
C1DD
  0
DICTIONARY
  5
C1DA
330
1F2
100
AcDbDictionary
280
     1
281
     1
  3
ACAD_XREC_ROUNDTRIP
360
C1DB
  0
DICTIONARY
  5
C1D4
330
1EF
100
AcDbDictionary
280
     1
281
     1
  3
ACAD_XREC_ROUNDTRIP
360
C1D5
  0
DICTIONARY
  5
C1D6
330
1F0
100
AcDbDictionary
280
     1
281
     1
  3
ACAD_XREC_ROUNDTRIP
360
C1D7
  0
DICTIONARY
  5
C1C4
330
FC
100
AcDbDictionary
280
     1
281
     1
  3
ACAD_XREC_ROUNDTRIP
360
C1C5
  0
DICTIONARY
  5
C1B8
330
F6
100
AcDbDictionary
280
     1
281
     1
  3
ACAD_XREC_ROUNDTRIP
360
C1B9
  0
DICTIONARY
  5
C1D8
330
1F1
100
AcDbDictionary
280
     1
281
     1
  3
ACAD_XREC_ROUNDTRIP
360
C1D9
  0
XRECORD
  5
C1E1
102
{ACAD_REACTORS
330
C1E0
102
}
330
C1E0
100
AcDbXrecord
280
     1
102
DISPLAYNAME
  1
Metric50
102
FLAGS
 90
        0
  0
XRECORD
  5
C1A6
102
{ACAD_REACTORS
330
C1A5
102
}
330
C1A5
100
AcDbXrecord
280
     1
102
SHADEPLOT
 70
     0
102
SHADEPLOTRESLEVEL
 70
     2
102
SHADEPLOTCUSTOMDPI
 70
   300
  0
XRECORD
  5
C1A8
102
{ACAD_REACTORS
330
C1A7
102
}
330
C1A7
100
AcDbXrecord
280
     1
102
SHADEPLOT
 70
     0
102
SHADEPLOTRESLEVEL
 70
     2
102
SHADEPLOTCUSTOMDPI
 70
   300
  0
XRECORD
  5
C1A3
102
{ACAD_REACTORS
330
C1A2
102
}
330
C1A2
100
AcDbXrecord
280
     1
102
SHADEPLOT
 70
     0
102
SHADEPLOTRESLEVEL
 70
     2
102
SHADEPLOTCUSTOMDPI
 70
   300
  0
XRECORD
  5
C1AA
102
{ACAD_REACTORS
330
1F9
102
}
330
1F9
100
AcDbXrecord
280
     1
102
MATERIAL
148
0.0
149
0.0
149
0.0
 93
        0
 94
       63
282
     0
 72
     1
 77
     1
171
     1
175
     1
179
     1
273
     0
  0
XRECORD
  5
1FA
102
{ACAD_REACTORS
330
1F9
102
}
330
1F9
100
AcDbXrecord
280
     1
 70
     1
 90
429727718
  1
D62C5603-E3A1-4AEA-B7FB-FE5D8D0755AF
310
504B03040A0000080000CC70623B3DEE336E79000000790000001B0000006175746F6465736B2D64657369676E2D7061636B6167652E786D6C3C3F786D6C2076657273696F6E3D22312E302220656E636F64696E673D227574662D3822203F3E3C666F726D6174733E3C666F726D61743E687474703A2F2F736368656D612E
310
6175746F6465736B2E636F6D2F64657369676E2D7061636B6167652F323030393C2F666F726D61743E3C2F666F726D6174733E504B0304140006080800CC70623BD486FD9CA0000000F4000000130000005B436F6E74656E745F54797065735D2E786D6C7D8EC10E82300C865F65E91D8A1E8C310C0EEA1BF002731658846E
310
D98AC1B77784ABF1D8FE5FBFBF75BBCE937A534CCEB38643598122B6FEE978D0B0485F9C41B54DDD7D022595594E1A469170414C76A4D9A4D207E29CF43ECE46F218070CC6BECC4078ACAA135ACF422C856C0E68EA1BF5669944DDD7BCDE7B1F8E415D77AECB980613C2E4AC91FC167A2B244592486606FC29C8FD7F045B9A
310
EF7053A7E60B504B0304140006080800CC70623B853B8169EB0000007C01000008000000636F72652E786D6C8D90416EC3201045AF62CDB6C206821CC7C244919D9CA01740401C94182C03558F5F9C3852BBEB6A467FFE9B197D7EFC9E1EC5975982F5AE035262288C535E5B377690E21535501C055FBC8FBF6C503839990E
310
5619041F179FE64D52DE45E362569DD7661365082642A11EB9E920A89B99642953CC8E702F67A9EE7234257977194EC9EAE275C4EABCCF5EAD5940D4AC6F0E35A568B8F43562CD7046CD199FD07E60174276A7BE677B5EADB0E0D14EEFFB6A31321A0D82627C4084204C3F096B71DD52F6819B16635EADF63F509AF53FA164
310
5DDCD1EDDD17164090FCC8732078B56691CB33A85CD7DCC40F504B0304140006080800CC70623B55019EA25F0000007C00000007000000636E782E786D6C4DCB3B0E80201045D1AD90E915ED2CF8AC45050C11660C8261F98AB1B07AC9C97D42D718D865D3E909258CFD00CCE24AC6E326A164D74DC0B4128928FF32603847
310
2BA13128B1252AC747C6BAB984FC68F0B87FE8960A5C09FE86CFB69FBA01504B0304140006080800CC70623BDBABAAF470010000D40300000C0000006662782F636F72652E786D6CC553D16E823014FD95A6AF4B694182CC941A83FA05FB810A9511A125A5257EFE2E82712ECEB8A7F100CD39F7F69E734AF9FADC366850B6
310
AF8DCE7018308C942E4C59EB2AC3DE1D498AD15A706B8CFB56869196ADCAF00863C12B6B7C374385D14E6907A836A59A41D9F7CA615434B0C8705F7CAA5606D23BA8E84F41278B93AC54100640439DE0BDB320004D43C63716C7C399D30917DCFBBA9CD9BA8469F5B156168B24CED3F7248AC8769F27244EB73B92EED8862C
310
B7F13E0C179B3C8F979C8ECD82BBBABDAA2BAC924E9558448CBD9330242CFA08E3154B5651FCC6D215639C8EE5774DBE2B5F6CF2B5768B68963BB5F5588420E442FC700B1139D4CB01F450C1E918227C2E09DF070D8140C84E1E9AAB8F1340832A9CB13130A5F1376A908D57309505ECF2A0DF179C4E9D30F5B239B87E3823
310
7A79C6F31DE1A8A5AEC08474B03C7837EAE4938639B44E5932B833D2C6B6B279CDC613877FA26EE21F4A2A4C63EC7F29A2F301D1F9F7A0E37D145F504B0304140006080800CC70623B9C113CC27E0000009D0000000B0000006662782F636E782E786D6C4DCCDF0A83201C86E15B91DFB94BFB330DD428C8FB886521330DA7
310
6397BF1A1DECE883878F57749FCDA1B7892F1BBC047A23808C7F84D9FA55424E0BE6803A256208E9EF06C84F9B91703228B1C690F78B66B34CD9A5439DF5CF0BFBF65E35BCA1B8D6A5C6F540381E886698B5741C695F9503EBA150A2F8958E3DC3EA0B504B0304140006080800CC70623B7DF2F77C2A010000120200003100
310
00006662782F41393633353835312D344632462D344230382D423046372D3739314545314133324237412F636F72652E786D6C8D51DB8EC22014FC15C2939B0D2DB4B45643319AE817EC0F6041255A68B86CFCFC856D4D76DF7CE190393373060EDB3DC707F856CE6B6B7A480A0C81328395DA5C7B18C3057510EC3873D686
310
3F34088C18550F330C39BB3A1BA7051AAC09CA84841A2BD5020AEF55806078A44B0FFD7053A328440C89E1EFC52486BBB8AA8214A99D789CF9E05200300FC927E4FB4D5B375D43103D5527440FB843077C5AA3F5861C8F645F5787F59E95B390B318B55CE45AA638FAA2957BD7248B390B7A7CC51F9C124149C82B8C378810
310
84AB2F42B7B8DD56F413775B8C5999E9FF4471926F8AA236A1AE96B8B3CC434E5839373893369E1FAF30EA395917409EB7F26AF8801C171837A4A6AC9C89E9F9C9B1A58BA30FD6A5EF5DDDCF894B9AD9B6A59C957943A9FCAE2FD5BC4DFE03504B0304140006080800CC70623BAD7543B64E01000033030000300000006662
310
782F41393633353835312D344632462D344230382D423046372D3739314545314133324237412F636E782E786D6CD593CD6EC32010845F0571AD6CE3D48AD20813A9873E410FBD12D82434182C7EAAE6EDBB2424CD25871E7B41D6EC30B3FA84F9E67BB2E40B4234DE8DB46F1925E094D7C6ED479AD3AE5951B2113C789FEE
310
6C943839C1488B4C05DF079FE72A69D8C96C13AAD6B8631503449F83828872B949AC57D26200B826A308D316B4064D6E46FCDA41C05550DC9E483A00797BFD207EFB092A45DE9514C1BBD22178396BD39D891265658C238DEA00936C654E5E433CB65A26D9F6EDB5EBC14EBF49A45CB856E66048291F6939A9A81BB5C89177
310
38143CA680F4AA299D66A042CEB3354A2684DC9D8D178FE0D9B8B41CAAD720F880EE7EF93C0C18769E099ECC04D5A102C8049A8A05632F4DDF376CF1DE0F6BB65C2F8627B65A33C6BB62177CEBBDAD973006829F89F22E814B54F4BC2BE347F8AA8F681390B50FA73F804400B5F542E796F19FF974E7F78DB802FE05E20750
310
4B0304140006080800CC70623BE75B7789680500003C100000340000006662782F41393633353835312D344632462D344230382D423046372D3739314545314133324237412F6F626A656374732E786D6CAD575B8F9B3818FD2B887D06C22499CB8AA1CA655245D5B455A356FB305264C061D8018C6C3393D95FBFC7600890
310
A4CD5EF210B0B1BFEBF98E3F7B1FF6596ABC522E1296DF9BAE3D320D9A872C4AF2F8DE2CE5CEBA358D0FBEC719939D65A691938CDE9B6ADAF4BD98B3B2D05311DD91329583D9D5FC0F438434A7A611A644887B5384CF34233629258BA878B12322891DEFF6B66BD70BFB62634E8AE781D082709A4B588AF91C528CDA28B73F
310
1C998EEF39EABBEFA97FBD6A7C7E9553F9D3D79FE442923C3C523610337627CB87ABE99D359D4CC6D6E4FACAB5E6ABF9D2726FC6A3C5F56271377BB88362213924694B38DD99FE47C48627A1E7D49F5A8BB5E1A74C0A599ED3B0F21F1E56366B89112D681E218F0915D0D6F17AD41FBA2A369DCF6335D62ABBD39779D5DDD1
310
11D4D8DE3CBB96B2E04FB8202E41051754A1AA8E8F76B4C6DFE810B580B1547F4B84911149794252234D024EF8BBE963A95AE27B3D310A9D5C215C7960FAEE415ED75694C6AFB17BCACA5D99A60A9AA65F217B0BFC53292ACB92BF283FAD0D3621576592CB5BED907C2FA8E9DF794E35E97BEA31BED21FEB401ABB94C44839
310
DCACBF0E1C5DA8DA5B2F4DFFD32AD86F543D9E565E7056502E157C00AD2671CD534549AB752FCA9CDA00677A313F04E51B22FF19E57B300579E3C97EB29F682D92935CEC18CF901B7B54FD8C51F362B56FC72FE0B3C1EAE335EDCCBF5AEC39ADB17DC238973F804BA5E6F6BFE7AF1FB32E523BE9F3BD571418E3631DCA4D48
310
5250CF639223210A9446CA30052EDF057BD35F8329C1ECD84552BF0DC8D18BE7BCE23BFE6BD960AB4A7DE79923A103BEBD80F911CBAA2C60DB19B01CF164A5583B772EE6D3FFA56666CBCDA74DC97724A48F9A58967497E489C4D979006FD7A05E227A1EBDD0F737C623387A9C844D3709995625106D157315F8B8392CD4E0
310
A0B9A720C4BE9829CEF37EA1E13111214D53925356365ADA634861B52519DD27A00AEB808EAF0628E6F435519D446F45CF2C9CF5214F0A15B2F6D06B79DA3EE3CBF7F56780D2F4E7EF73A0F5E5B02A38D07DC852C6B7C1FBB6664213E0C39E3EBA7FF4E1AD23EA2829407C85E586727488B751B2DB9502BC7B228A3FD68B6E
310
A65A22397E690AA8D158D7E404EC8CDA235CC3B7D1898680131CEC2CDF2638C65196279577750F15884AEE19F94199155B92B13297978469D4F8D358DF0AEF7631E28DC8F0D9F437D5D39A83B2231A1D52D543813A824EF8D44BCFF2FA6A31BD1E8DAD87F1CCB526B3879935BF59CDADD5C37479BB1CDD4CA7B3556B516589
310
EF352754B706114D9C885EC9131DE6EFEB43D99AFE2391C2F958179413D7CFEF6B1B6DB1E7600F00DE6E5C67454A339A4BA2E0FBA85ED26F045D454F463DBFCE484C2F90F2E5E3666003662ED8F755951A7D1BECD5B30B550B2785C8E7320B7292A4838DDA71BBC863ED7613CAF659337A3354231D4FF4A182A54904C2898C
310
98B28C4AD0CE056CCF332A80986E571EE9DBC305BB5FEB7E509220A58D25CF042D712A806AC0AD0C657FDEF80D2D9CEAA2EE4D1C76F60BFE74219A06527D6F82DF6412526107381E55E353090704D085B52408A8913C4ED159D79BDA71BB4BC506F4831350EB6F975CD22D69BF7AC49B91A2C0A9DDA3D5CA36AD20FC478E37
310
E61844E2352865EBCB61A275A65283CAAA9DD27703B4102F5AF51EF5F573B75CBB5AD38BC845F7A49F82A0966A49C2E3EA5EA0ECD326CD965F1DB402C6FA8B51A4658C5C5E2EC9E214602E55810345408596591009A82E7E7FFACA19EEA299B14A0081A705CB3296EBC14CDF658DCD336EA6D1136881AAEB87B81AB9EE53D5
310
F5EB8BC8362082DA24122F98680A4E7930C01A0079749CEA14382A0783E5EBA5A10F8C098456A03D6A4AEB6BB881E2513747552A5DB22C7EDAF83BD5528081A365F7FF06504B0304140006080000CC70623B000000000000000000000000350000006662782F41393633353835312D344632462D344230382D423046372D37
310
39314545314133324237412F76657274696365732E62696E504B0304140006080800CC70623BF270F1330600000004000000360000006662782F41393633353835312D344632462D344230382D423046372D3739314545314133324237412F747269616E676C65732E62696E636660600000504B0304140006080000CC7062
310
3B000000000000000000000000370000006662782F41393633353835312D344632462D344230382D423046372D3739314545314133324237412F617474726962757465732E62696E504B0304140006080800CC70623B08DA0BD19000000041010000360000006662782F41393633353835312D344632462D344230382D4230
310
46372D3739314545314133324237412F6469726563746F72792E786D6C858F410AC3201045AF22B36F53E9A60B35CBEEBAE80D244E44489C6234F4F835464A48035D0DF398FF9F8AF63D0E6CC63039F212F8F9020C7D47C6792B21C5FE7403D62A1188E2E60C98D7234A5830286103A55745067B9D86B8A3CF9C7F90C11DE6
310
07FB144396D7B6A82D282E9A152AD114D5EF2CB866EEE831B8EEA07A7BB5A8D7D61A2BAAEB7FD5F70921FF497D00504B0304140006080800CC70623BEDD1DC58FD000000A00100003B0000006662782F41393633353835312D344632462D344230382D423046372D3739314545314133324237412F7265736F75726365732F
310
636F72652E786D6C8D504B6E833010BD0A9A6D65B00922041947112427E8052C33A156828DFCA97AFC9A40A576D7CDCCE87D344F8F9FBFE667F689CE6B6B3A6039850C8DB2A336530731DC4903D95970676DF82583CCC8193B5861107C72362E3BA4AC096842428D1D7107A5F7182053CF7474E0D507CE32973124857FE48B
310
540F3961CEF244279DE03EB81420DB9EAC1384436FA353E879B1B182C7A8C75DA3C7F453DF353A1075D537A7BA6464B8F535A99AE14A9A2BBD90E350DD183B5CFABE3AF262350B1EF4FC9351399401471025A527C218A1E53BAB5A5AB765F5469B96525EACF23FA6B88CFF34456DC2A1DCE36E360F82A5202F42F062ED2BAD
310
579969AFDD8A6F504B010214000A0000080000CC70623B3DEE336E79000000790000001B00000000000000000000000000000000006175746F6465736B2D64657369676E2D7061636B6167652E786D6C504B01021400140006080800CC70623BD486FD9CA0000000F40000001300000000000000000000000000B20000005B
310
436F6E74656E745F54797065735D2E786D6C504B01021400140006080800CC70623B853B8169EB0000007C010000080000000000000000000000000083010000636F72652E786D6C504B01021400140006080800CC70623B55019EA25F0000007C000000070000000000000000000000000094020000636E782E786D6C504B
310
01021400140006080800CC70623BDBABAAF470010000D40300000C00000000000000000000000000180300006662782F636F72652E786D6C504B01021400140006080800CC70623B9C113CC27E0000009D0000000B00000000000000000000000000B20400006662782F636E782E786D6C504B01021400140006080800CC70
310
623B7DF2F77C2A010000120200003100000000000000000000000000590500006662782F41393633353835312D344632462D344230382D423046372D3739314545314133324237412F636F72652E786D6C504B01021400140006080800CC70623BAD7543B64E010000330300003000000000000000000000000000D2060000
310
6662782F41393633353835312D344632462D344230382D423046372D3739314545314133324237412F636E782E786D6C504B01021400140006080800CC70623BE75B7789680500003C10000034000000000000000000000000006E0800006662782F41393633353835312D344632462D344230382D423046372D3739314545
310
314133324237412F6F626A656374732E786D6C504B01021400140006080000CC70623B0000000000000000000000003500000000000000000000000000280E00006662782F41393633353835312D344632462D344230382D423046372D3739314545314133324237412F76657274696365732E62696E504B01021400140006
310
080800CC70623BF270F133060000000400000036000000000000000000000000007B0E00006662782F41393633353835312D344632462D344230382D423046372D3739314545314133324237412F747269616E676C65732E62696E504B01021400140006080000CC70623B0000000000000000000000003700000000000000
310
000000000000D50E00006662782F41393633353835312D344632462D344230382D423046372D3739314545314133324237412F617474726962757465732E62696E504B01021400140006080800CC70623B08DA0BD1900000004101000036000000000000000000000000002A0F00006662782F41393633353835312D344632
310
462D344230382D423046372D3739314545314133324237412F6469726563746F72792E786D6C504B01021400140006080800CC70623BEDD1DC58FD000000A00100003B000000000000000000000000000E1000006662782F41393633353835312D344632462D344230382D423046372D3739314545314133324237412F7265
310
736F75726365732F636F72652E786D6C504B0506000000000E000E0080040000641100000000
  0
XRECORD
  5
C1A9
102
{ACAD_REACTORS
330
1F7
102
}
330
1F7
100
AcDbXrecord
280
     1
102
MATERIAL
148
0.0
149
0.0
149
0.0
 93
        0
 94
       63
282
     0
 72
     1
 77
     1
171
     1
175
     1
179
     1
273
     0
  0
XRECORD
  5
1F8
102
{ACAD_REACTORS
330
1F7
102
}
330
1F7
100
AcDbXrecord
280
     1
 70
     1
 90
429727718
  1
30362254-06B7-45E0-A893-8CFA70E3D6BC
310
504B03040A0000080000CC70623B3DEE336E79000000790000001B0000006175746F6465736B2D64657369676E2D7061636B6167652E786D6C3C3F786D6C2076657273696F6E3D22312E302220656E636F64696E673D227574662D3822203F3E3C666F726D6174733E3C666F726D61743E687474703A2F2F736368656D612E
310
6175746F6465736B2E636F6D2F64657369676E2D7061636B6167652F323030393C2F666F726D61743E3C2F666F726D6174733E504B0304140006080800CC70623BD486FD9CA0000000F4000000130000005B436F6E74656E745F54797065735D2E786D6C7D8EC10E82300C865F65E91D8A1E8C310C0EEA1BF002731658846E
310
D98AC1B77784ABF1D8FE5FBFBF75BBCE937A534CCEB38643598122B6FEE978D0B0485F9C41B54DDD7D022595594E1A469170414C76A4D9A4D207E29CF43ECE46F218070CC6BECC4078ACAA135ACF422C856C0E68EA1BF5669944DDD7BCDE7B1F8E415D77AECB980613C2E4AC91FC167A2B244592486606FC29C8FD7F045B9A
310
EF7053A7E60B504B0304140006080800CC70623B1EC5D7A3EB0000007C01000008000000636F72652E786D6C8D90416EC3201045AF82665B6103C6756C6122AB4D4ED00B204C5C94182C03558F5F9C3852BBEB6A467FFE9B197D71FC9E6FE8CBACC17AD7032D0820E3B41FAD9B7A48F1820F808E52ACDEC75F36404ECDA687
310
4D0629A6D5A76597B477D1B89855E747B38B2A041301E95B6E7A08FAD3CCAA50296647B8168BD2573599823EBB0CA76447F43862C7BCCF5EAC59410E4DDD9C7973C2755553CCCFA4C603E3040F1565ED3B1FDE4E432BCA0D9622DAF9795FAF464533826484B498524CD807E51D79ED187F21878E10516EF63F505AC67F42C9
310
BA58B1FDDD071640D2FCC87D2045B96591CB3DA85CB7DCE40F504B0304140006080800CC70623B55019EA25F0000007C00000007000000636E782E786D6C4DCB3B0E80201045D1AD90E915ED2CF8AC45050C11660C8261F98AB1B07AC9C97D42D718D865D3E909258CFD00CCE24AC6E326A164D74DC0B4128928FF32603847
310
2BA13128B1252AC747C6BAB984FC68F0B87FE8960A5C09FE86CFB69FBA01504B0304140006080800CC70623B8C9102E971010000D40300000C0000006662782F636F72652E786D6CC5535B6E833010BC8AE5DF0A6C08340F1947A84D4ED00B38C6A128602363A31CBFCB234A53A551FA553EC09AD9F5CE8C31DB9E9B1AF5CA
310
7695D1198E428A91D2D214952E33ECDD315861B4E5CC1AE3BE9561A445A3323CC098B3D21ADFCE9034DA29ED00D5A6503328BA4E398C640D8B0C77F253352214DE4145770A5B214FA2546114020D759C75CE8200340D19DE981F0F6746269C33EFAB6266AB02A655C74A59CCF365BADC27CB5D902ED22848F6340DF238A141
310
BE88E2F57B92BFEDF23523433367AE6A2EEAA455C2A902F398D2751045018D3FA264435F3771F242571B4A1919CA6F9A7C5B3CD9E42BED16F12C776AEB308F40C848FC700B1139D4891EF410CEC810227CC6846F8386402064270EF5C5C709A05E49676C024C61FC95EA45ED154CA5211D1FF4FB8291A913A68E9B83EBBB33
310
E2A7673CDE118E5AE8124C0807CB8377834E366998436B950D7A7746DAD846D4CFD978E0F04FD455FC5D49D2D4C6FE9722321F10997F0F32DC47FE05504B0304140006080800CC70623BFFEA85907E0000009D0000000B0000006662782F636E782E786D6C4DCCD10A83201886E15B91FFDC95D95A811AB6F23E625948A6C3
310
E9D8E5AF46073BFAE0E1E365ED67B3E8ADC3CB78C7815C7240DA3DFC64DCC221C519D7805AC182F7F1EF06C88D9BE6703008B6049F9E274D7A1E938DBB5AE3D6131B2589BA0D3D965551E0B2EA732C9B9A624AAEB41E3A557677029960D9AFB4EF11165F504B0304140006080800CC70623B4FEEA4082C0100001202000031
310
0000006662782F39464131463745442D413632322D343644302D413938332D3331353338454246344243312F636F72652E786D6C8D515B6EC32010BC0AE2AB55850DD871ED0813254D72825EC00192A2C460F1A872FC42ED48ED5F7E00CDCECCCEB26C731F6FE05B39AFADE921293004CA082BB5B9F43086336A21D870E6AC
310
0D7F68109861543DCC30E4ECE26C9C164858139409093556AA051CBC570102714B8F1E7AF1A5C6A11862480C7F2DA6415C878B2A4891CA89C7990F2E050073937C42DE1DB7E4F87ED8A36D4329AA9B3D46DBAEAD504556557BD81DEBDD0761E52CE42C462D17B996298E3E6BE59E35C962CE821E1FF18553435012728A7187
310
0841987E927A8D9B35ADDF70BBC6989599FE4F1427F9A4286A132ABAC49D651EF234CD5CE04CDA78BA3DC2A8FB645D00B9DF8B57E215725C60BCA2A463E54C4CE327C7A65E1C7DB02E7DEFCBF594B864C5CA6CDBD49C957943E9FA5D5FBAF336F90F504B0304140006080800CC70623BAD7543B64E01000033030000300000
310
006662782F39464131463745442D413632322D343644302D413938332D3331353338454246344243312F636E782E786D6CD593CD6EC32010845F0571AD6CE3D48AD20813A9873E410FBD12D82434182C7EAAE6EDBB2424CD25871E7B41D6EC30B3FA84F9E67BB2E40B4234DE8DB46F1925E094D7C6ED479AD3AE5951B2113C
310
789FEE6C943839C1488B4C05DF079FE72A69D8C96C13AAD6B8631503449F83828872B949AC57D26200B826A308D316B4064D6E46FCDA41C05550DC9E483A00797BFD207EFB092A45DE9514C1BBD22178396BD39D891265658C238DEA00936C654E5E433CB65A26D9F6EDB5EBC14EBF49A45CB856E66048291F6939A9A81BB5
310
C8917738143CA680F4AA299D66A042CEB3354A2684DC9D8D178FE0D9B8B41CAAD720F880EE7EF93C0C18769E099ECC04D5A102C8049A8A05632F4DDF376CF1DE0F6BB65C2F8627B65A33C6BB62177CEBBDAD973006829F89F22E814B54F4BC2BE347F8AA8F681390B50FA73F804400B5F542E796F19FF974E7F78DB802FE05
310
E207504B0304140006080800CC70623B16AB87BA640500003C100000340000006662782F39464131463745442D413632322D343644302D413938332D3331353338454246344243312F6F626A656374732E786D6CAD575B6FA33818FD2B887DE6924B3BED8A326A92B68A663B534DD4D13E548A0C38942D60649B369D5FBFC7
310
600890A493BDE42160637FD7F31D7FF63E6FB3D478A55C242CBF3247B66B1A340F5994E4F19559CA8D75611A9F7D8F33263BCB4C232719BD32D5B4E97B316765A1A722BA21652A07B3B7B33F0D11D29C9A46981221AE4C113ED38CD8A4942CA2E2C58E882476BCD9DA23BB5ED8171B73523C0F841684D35CC252CCE79062D4
310
468DFA43D7747CCF51DF7D4FFDEB5593E3AB9CCA9FBEFE241792E4E19EB28198C968BAB8199F5D5A67D3E9C49A9E8F47D6EC76B6B0469F26EEFC7C3EBFBCBEB98462213924694B38DD98FE1D62C393D073EA4FADC5DAF04326852CCF6958F90F0F2B9BB5C48816348F90C7840A68EB78EDF68723159BCEE7891A6B95DDE9D3
310
BCEAEEE8086A6C6F9E5D4B59F0175C10A7A0820BAA5055C7473B5AE3CFDD452D602CD5DF12616444529E90D448938013FE6EFA58AA96F85E4F8C42275708571E98FE6827AF6B2B4AE3D7D83D64E5A64C53054DD3AF90BD06FEA9149565C94FCA0F6B834DC85599E4F2423B24DF0B6AFA979E534DFA9E7A4CC6FA631D486393
310
921829879BF5D781A373557BCB85E97FB90DB62B558F8795179C15944B051F40AB495CF35451D26A4727654E6D8033BD98EF82F21D91FF8AF2DD9982BCF1643BDD4EB516C9492E368C67C88DED563FC36D5EACF66DFF057C3658BDBFA69DF9578B3DA735B64F18C7F20770A9D45CFCF7FCF563D6456A277DBEF78A02637CA2
310
43B90A490AEAB94F72244481D24819A6C0E59B606BFA4B3025981DBB48EAB701D97BF19C577CC77F2D1B6C55A9EF3C732474C0B727303F625995056C3B02963D9EAC146BE78EC5FCEC7FA999EBC5EACBAAE41B12D27B4D2C0BBA49F244E2ECDC81B76B502F113D8F5EE8FB1BE3111CDD4FC2AA9B844CAB1288B68AB90A7CDC
310
1C166AB0D3DC5310625FCC14E779BFD0709F8890A629C9292B1B2DED31A4B0DA928CEE135085754027E3018A397D4D5427D15BD1330B677DC8934285AC3DF45A9EB68FF8F2B8FC0A509AFEECFD0FF2DE25CC6047F7214B195F07EFEB9A094D800F7BFAE8FED187B78EA8A3A400F115961BCAD1215E47C966530AF0EE8128FE
310
58CEBB996A8964FFA529A046635D9353B0336A8F700DDF46271A024E70B0B37C9DE01847591E54DED53D54202AB947E4076556AC49C6CA5C9E1226B7F1A7B1BE15DEED62C41B91E1B3E9AFAAA735036547343A925075041DF0A9979E893B391F8FCFA6967B3EFB644DCF6E5CEBFAE272625DCC6FAF3FB93793C5F90CE1EF57
310
407342756B10D1C489E8953CD1617E5CEECAD6F4EF8914CE5D5D504E5C3F1F9736DA62CFC11E00BCDDB8CC8A9466349744C1F75EBDA4DF09BA8A9E8C7A7E9991989E20E5DBDD6A6003664ED8F7A04A8DBE0DF6EAD9B9AA858342E47399053949D2C146EDB85DE4B176BB0965FBAC19BD19AA918E27FA50C1D22402E144464C
310
59462568E704B6E71915404CB72B8FF4EDE184DDAF753F284990D2C6926782963815403548A70C657FDEF80D2D9CEAA2AE4C1C76F60BFE74219A06527D6582DF6412526107381E55E353090704D085B52408D0933C4ED159D79BDA71BB4BC506F4831350EB6F979CD22D69BF7AC49B91A2C0A9DDA3D5CA36AD20FC478E37E6
310
1844E2352865EBCB6EA275A652E3836BE04EFB400BF1A2556F515F1FBB35B2AB35BD889C744FFA1004B5544B121E57F70215746DD2F5E2C1412B602CBF19455AC6C8E5E9922C4E01E65215385004546899059180EAFCF7A707CE7017CD8CDB0410789AB32C63B91E5CEBBBACB17AC6CD347A022D5075FD106377347AAABA7E
310
7D11590744509B44E205134DC1290F06580320F78E537D3D73540E06CB970B431F185308AD40BBD794D6D77003C5A36E8EAA54BA64597CD8F83BD552A080A365F7FF06504B0304140006080000CC70623B000000000000000000000000350000006662782F39464131463745442D413632322D343644302D413938332D3331
310
353338454246344243312F76657274696365732E62696E504B0304140006080800CC70623BF270F1330600000004000000360000006662782F39464131463745442D413632322D343644302D413938332D3331353338454246344243312F747269616E676C65732E62696E636660600000504B0304140006080000CC70623B
310
000000000000000000000000370000006662782F39464131463745442D413632322D343644302D413938332D3331353338454246344243312F617474726962757465732E62696E504B0304140006080800CC70623B08DA0BD19000000041010000360000006662782F39464131463745442D413632322D343644302D413938
310
332D3331353338454246344243312F6469726563746F72792E786D6C858F410AC3201045AF22B36F53E9A60B35CBEEBAE80D244E44489C6234F4F835464A48035D0DF398FF9F8AF63D0E6CC63039F212F8F9020C7D47C6792B21C5FE7403D62A1188E2E60C98D7234A5830286103A55745067B9D86B8A3CF9C7F90C11DE607
310
FB144396D7B6A82D282E9A152AD114D5EF2CB866EEE831B8EEA07A7BB5A8D7D61A2BAAEB7FD5F70921FF497D00504B0304140006080800CC70623B0D6EF93BFE000000A00100003B0000006662782F39464131463745442D413632322D343644302D413938332D3331353338454246344243312F7265736F75726365732F63
310
6F72652E786D6C8D50596E833010BD0A9ADFCA60B334011947A8694ED00B586642AC041B79A97AFC9A40A5F6AF3F33A3B7689E1E3F7DCD8FEC139DD7D6F4C0720A191A65476DA61E62B892236427C19DB5E1970C322367EC618541F0C9D9B8EC90B226A009093576C41D94DE63804C3DD2D18357379C652E63480A7FCF17A9
310
EE72C29CE5894E3AC17D702940B63D59270887DE46A7D0F36263058F518FBB468FE9A7BE6A7420864373B8D4873369AA8691FA421B3294352543C5CAF65C0F6FEF43CB8BD52C78D0F34F46E550061C419494B6843142CB0F5677F4B52BEB177AEC28E5C52AFF638ACBF84F53D42654E51E77B379102C05791282176B5F693D
310
CB4C7BED567C03504B010214000A0000080000CC70623B3DEE336E79000000790000001B00000000000000000000000000000000006175746F6465736B2D64657369676E2D7061636B6167652E786D6C504B01021400140006080800CC70623BD486FD9CA0000000F40000001300000000000000000000000000B20000005B
310
436F6E74656E745F54797065735D2E786D6C504B01021400140006080800CC70623B1EC5D7A3EB0000007C010000080000000000000000000000000083010000636F72652E786D6C504B01021400140006080800CC70623B55019EA25F0000007C000000070000000000000000000000000094020000636E782E786D6C504B
310
01021400140006080800CC70623B8C9102E971010000D40300000C00000000000000000000000000180300006662782F636F72652E786D6C504B01021400140006080800CC70623BFFEA85907E0000009D0000000B00000000000000000000000000B30400006662782F636E782E786D6C504B01021400140006080800CC70
310
623B4FEEA4082C0100001202000031000000000000000000000000005A0500006662782F39464131463745442D413632322D343644302D413938332D3331353338454246344243312F636F72652E786D6C504B01021400140006080800CC70623BAD7543B64E010000330300003000000000000000000000000000D5060000
310
6662782F39464131463745442D413632322D343644302D413938332D3331353338454246344243312F636E782E786D6C504B01021400140006080800CC70623B16AB87BA640500003C1000003400000000000000000000000000710800006662782F39464131463745442D413632322D343644302D413938332D3331353338
310
454246344243312F6F626A656374732E786D6C504B01021400140006080000CC70623B0000000000000000000000003500000000000000000000000000270E00006662782F39464131463745442D413632322D343644302D413938332D3331353338454246344243312F76657274696365732E62696E504B01021400140006
310
080800CC70623BF270F133060000000400000036000000000000000000000000007A0E00006662782F39464131463745442D413632322D343644302D413938332D3331353338454246344243312F747269616E676C65732E62696E504B01021400140006080000CC70623B0000000000000000000000003700000000000000
310
000000000000D40E00006662782F39464131463745442D413632322D343644302D413938332D3331353338454246344243312F617474726962757465732E62696E504B01021400140006080800CC70623B08DA0BD190000000410100003600000000000000000000000000290F00006662782F39464131463745442D413632
310
322D343644302D413938332D3331353338454246344243312F6469726563746F72792E786D6C504B01021400140006080800CC70623B0D6EF93BFE000000A00100003B000000000000000000000000000D1000006662782F39464131463745442D413632322D343644302D413938332D3331353338454246344243312F7265
310
736F75726365732F636F72652E786D6C504B0506000000000E000E0080040000641100000000
  0
XRECORD
  5
C1AB
102
{ACAD_REACTORS
330
173
102
}
330
173
100
AcDbXrecord
280
     1
102
MATERIAL
148
0.0
149
0.0
149
0.0
 93
        0
 94
       63
282
     0
 72
     1
 77
     1
171
     1
175
     1
179
     1
273
     0
  0
XRECORD
  5
175
102
{ACAD_REACTORS
330
173
102
}
330
173
100
AcDbXrecord
280
     1
270
     1
271
     1
  0
XRECORD
  5
174
102
{ACAD_REACTORS
330
173
102
}
330
173
100
AcDbXrecord
280
     1
270
     1
271
     1
  0
XRECORD
  5
1FB
102
{ACAD_REACTORS
330
173
102
}
330
173
100
AcDbXrecord
280
     1
 70
     0
 90
1673772943
  1
ECE7A1D2-D628-4531-984C-D00F80459256
310
504B03040A0000080000CC70623B3DEE336E79000000790000001B0000006175746F6465736B2D64657369676E2D7061636B6167652E786D6C3C3F786D6C2076657273696F6E3D22312E302220656E636F64696E673D227574662D3822203F3E3C666F726D6174733E3C666F726D61743E687474703A2F2F736368656D612E
310
6175746F6465736B2E636F6D2F64657369676E2D7061636B6167652F323030393C2F666F726D61743E3C2F666F726D6174733E504B0304140006080800CC70623BD486FD9CA0000000F4000000130000005B436F6E74656E745F54797065735D2E786D6C7D8EC10E82300C865F65E91D8A1E8C310C0EEA1BF002731658846E
310
D98AC1B77784ABF1D8FE5FBFBF75BBCE937A534CCEB38643598122B6FEE978D0B0485F9C41B54DDD7D022595594E1A469170414C76A4D9A4D207E29CF43ECE46F218070CC6BECC4078ACAA135ACF422C856C0E68EA1BF5669944DDD7BCDE7B1F8E415D77AECB980613C2E4AC91FC167A2B244592486606FC29C8FD7F045B9A
310
EF7053A7E60B504B0304140006080800CC70623BD9DDAED0EC0000007C01000008000000636F72652E786D6C8D90416EC3201045AF82665B61836D9CD8C2444DD39CA01740405C94182C03558F5F9C3852BBEB6A467FFE9B197D7EF89E6EE8CB2CC17A37002D0820E394D7D68D03A478C17B4007C117EFE32F1B20272733C0
310
2A83E0E3E2D3BC49CABB685CCCAAF3DA6CA20CC14440EA969B0182FA34932C648AD911AEC52CD5558EA6A0CF2EC329598D1E47ACCEFBECC59A050463A7EA5833865FEBDD0E37353BE3EE8DBDE3F6786A48D375FBF6CC78B9C282473B3DEFABC5C86834888A900E538A49F5419B9EB47DD5BC907D4F082F57FB1F28CDFA9F50
310
B22ED6D5F6EE030B20687EE43E10BC5CB3C8E51E54AE6B6EE207504B0304140006080800CC70623B55019EA25F0000007C00000007000000636E782E786D6C4DCB3B0E80201045D1AD90E915ED2CF8AC45050C11660C8261F98AB1B07AC9C97D42D718D865D3E909258CFD00CCE24AC6E326A164D74DC0B4128928FF326038
310
472BA13128B1252AC747C6BAB984FC68F0B87FE8960A5C09FE86CFB69FBA01504B0304140006080800CC70623BA24EB22D72010000D40300000C0000006662782F636F72652E786D6CC5535B6E833010BC8AE5DF0A6C5E49888CA3A6694ED00B38E05014B091B1518EDFE511A5A9D228FD2A1F60CDEC7A67C6986DCE4D8D7A
310
69BA4AAB0C073EC548AA5C17952A33ECECD15B61B4E1CC686DBF9561A44423333CC098B3D268D7CE50AE9595CA02AA74216750749DB418E5352C32DCE59FB211BE70162ABA93DF8AFC244AE9073ED050C759670D0840D390E18DF9F1706664C23973AE2A66B62A605A75ACA4C13C4976E1364A12EF355A2EBD384AF65EFA96
310
BC7B8BED2EA6719AAE16FB8491A199335B351775B991C2CA02F390D2D40B028F861F41BCA68B7518BFD0D59A524686F29B26D7164F36B94AD9289CE54E6D1DE6010819891F6E21228B3AD1831EC219194284CF98F06DD01008846CC5A1BEF83801D4CBDC6A1303536877A57A513B0953A94FC707FDBE6064EA84A9E3E6E0FA
310
EE8CF0E9198F7784A316AA0413C2C2F2E0ECA0934D1AE6D05A69BCDE9E91D2A611F573361E38FC1375157F5752AE6B6DFE4B11990F88CCBF0719EE23FF02504B0304140006080800CC70623B408A7D3B7C0000009D0000000B0000006662782F636E782E786D6C4DCCD10A83201886E15B91FFDC552A92A0064DBC8F581632
310
D3703A76F9ABD1C18E3E78F878E5F0D9027ABBFCF2292AE86E2D20171F69F6715550CB827B40839639A5F2770314A7CD293819B45C73AAFB45B35BA61ACAA1C1C7E7855C58C15BC331339661262CC762340413D68D77DA5B42298546CBE6573AF60CEB2F504B0304140006080800CC70623B449FB9BD290100001202000031
310
0000006662782F36394639363044362D344446342D343946362D394244322D3234314243333846323333332F636F72652E786D6C8D515B6EC32010BC0AE22B55850D98B871848994463E412FE002495162B07854397EA176A4F62F3F2C9A9D991D587EB84F37F0AD7D30CEF6905418026DA553C65E7A98E219ED203808EE9D
310
8B7F6810D871D23D2C3014FCE25D9A57483A1BB58D19B54EE9151C43D0110279CB971E06F9A5A7B11A53CC8C70ADE6515EC78BAE4895DB992778883E0700CB907242D17643D7E2538BD869608875438BBAE38922CAC8F1BDD90DB4691A5E2F42C153326A951B95E398B3D1FE599322163C9AE9115F7A3D46ADA0A018778810
310
84E907617BDCEE297BC5BB3DC6BC2EF47FA234AB2745C9D8D8D035EE220B50105E2F0DC1954B9FB747187D9F9D8FA0CCDB042D5FA0C015C65B42DF78BD10F3F3B363CB56C7109DCFDFBBB97E662ED92EB62D13BC2E1BCAE5777DB9966D8A1F504B0304140006080800CC70623BAD7543B64E01000033030000300000006662
310
782F36394639363044362D344446342D343946362D394244322D3234314243333846323333332F636E782E786D6CD593CD6EC32010845F0571AD6CE3D48AD20813A9873E410FBD12D82434182C7EAAE6EDBB2424CD25871E7B41D6EC30B3FA84F9E67BB2E40B4234DE8DB46F1925E094D7C6ED479AD3AE5951B2113C789FEE
310
6C943839C1488B4C05DF079FE72A69D8C96C13AAD6B8631503449F83828872B949AC57D26200B826A308D316B4064D6E46FCDA41C05550DC9E483A00797BFD207EFB092A45DE9514C1BBD22178396BD39D891265658C238DEA00936C654E5E433CB65A26D9F6EDB5EBC14EBF49A45CB856E66048291F6939A9A81BB5C89177
310
38143CA680F4AA299D66A042CEB3354A2684DC9D8D178FE0D9B8B41CAAD720F880EE7EF93C0C18769E099ECC04D5A102C8049A8A05632F4DDF376CF1DE0F6BB65C2F8627B65A33C6BB62177CEBBDAD973006829F89F22E814B54F4BC2BE347F8AA8F681390B50FA73F804400B5F542E796F19FF974E7F78DB802FE05E20750
310
4B0304140006080800CC70623B8D05915C650500003B100000340000006662782F36394639363044362D344446342D343946362D394244322D3234314243333846323333332F6F626A656374732E786D6CAD575B6FA33814FE2B887D06429276DA1565D4266D158D3A339A6846FB502932E050B66023DB74D2FDF5FB190C01
310
9276B2973C046C8ECFF53B17071F77456EBD502133CEAE6CDF9DD81665314F32965ED995DA3A17B6F5310C04E7AA47665B8C14F4CAD6DB7618A48257A5D94AE89654B91AEDDEDDFC61C998326A5B714EA4BCB265FC440BE2924AF184CA6737218AB8E976E7FA6E4338649B0A523E8D98964450A6A029F619B8588D52FE7039
310
B1BD30F0F4F730D0FF866AF6369557DB33949F31A9088B0F848DD8CCFCF9F2767A76E99CCDE733677E3EF59D9BBB9BA5E37F984D16E78BC5E5F5ED25044B25C0C96822E8D60EEFE11B91C581D77CEA34368A1F5329E68CD1B8B61F16D63A1B8E092D294B10C78C4A48EB593D192E7DED9BDEE7995E1B91FDEDD3ACEA9FE831
310
6A756F9F7D4D79F4274C90A7A04248AA51D5F8C718DAE06FB2F75AC4796EBE65D22A88A22223B995679120E2D50E41AA49C260C046A35368846B0BECD0DFF3EBEB8AD4F835768F69B9ADF25C43D30E6B646F807FAA64AD59F61715C7A54127C4AACA98BA3006A9D792DAE165E0D59B61A01FB3A9F9D838D2DAE62445C86166
310
F37564E842E7DE6A69879FEEA2DD5AE7E371E1A5E025154AC307D06A03D73EB5978C58FFA4C8E9033066E0F3BD53BEC1F39F91BE7B55103791EDE6BBB991A2046172CB4581D8B893FA674DDA17A77B3B7C413D1B511FD2743BFF8A38F03A658705E3ADF8015C3A3417FF3D7E439FF591DA0B5F18BC20C1B8981957AE6392A3
310
F43C640C01D1A0B4728E2DD4F26DB4B3C3152A252A3B4E913CEC1C72F012782FF88EFF8637AA552DBEF76408E8A8DE9E50F9E1CB3A2DA0DB1B6039A893B56063DC5B3E3FFB5F72E67AB9FEB4AEC496C4F4C1149625DD662C53E89D7BF0F6151A046260D1337DFDC94502430F83B0EE07A130A224BCAD7DAE1D9FB6CD422FF6
310
920702629C4BB9AE79C12F243C6432A6794E18E5552BA56B431AAB5D91317302B2B071E86C3A42B1A02F999E24061403B5D0EB639195DA655DD3EBEAB4FB862DDF579F014AD0E73C22F99E28DA57FB98E75C6CA2D74D53086D600F4786E0FE3144B771A8A7B900F03594DB8A633CBC49B2EDB69228BB479CF863B5E807AAAB
310
23872F6DFEB4129B949CA33823F58830E86D65621E10047D9DB34D862E8EAC3C2ABC2F7B2C40D67CDFE01F5545B92105AF983AC54D93D69E56FB8E797F88913F898A9FEC705D3F9D1B54EC8426FB500D40A03BD0119B06E1B95DDC7EB8F6975367793EBD70E66733DFB9BC982F9CE564727731999F5D4ECFCE3B8D6A4DC2A0
310
6D50FD148437D110834A64C6CDDF57FBACB5C307A2A477DFE4939736CFEF2B175371E0E10CF0DD1D5C15654E0BCA14D1E87DD02FF93782A162C0A3D95F1524A52770F972BF1EE9809D13CE7DD599467F8ECE9ADD85CE85A34CD45355448C64F9E8A031DC2D596ACC6E5DD93D9B82DE2EF5CAF81363A8E47996A0DE24564A79
310
4115AACE09C55E14540231FDA13C319787134EBF34E3A022514E5B4D9E0826E25C02D5805B15ABE1BEF51B26383D445DD9E875EE33FE4C22DA16427D65A3BCA92CA6D28DD01DF5DC53330704308475351050232CCD31583787BA75774AFB06E5070DD0C8EF484E19968C5D83BA5B90B244D31E54D55A372320FE4786B7EA58
310
44E135AA5467CB7EA333A61683CC6A8C3257034C10CF46F40EF9F5BE59BE5BD30C3C72D235E95D10345C1D45445A5F0BB47E46A5EBE5570F9380B5FA629579952296A773720405982B9DE04011506178964401AA8BDF1FBF0A8EAB6861DD6580C0E38217056766716DAEB2D6FA0917D3E4116581EADB879C4E7CFFB11EFACD
310
3D641311495D92C8676CB409A72D18610D803CE8A626049E8EC1887CB5B44CC39883690DDA8399B4B9855B481E7D71D4A9D22F96E5BB73BF5793020C02137BF837504B0304140006080000CC70623B000000000000000000000000350000006662782F36394639363044362D344446342D343946362D394244322D32343142
310
43333846323333332F76657274696365732E62696E504B0304140006080800CC70623BF270F1330600000004000000360000006662782F36394639363044362D344446342D343946362D394244322D3234314243333846323333332F747269616E676C65732E62696E636660600000504B0304140006080000CC70623B0000
310
00000000000000000000370000006662782F36394639363044362D344446342D343946362D394244322D3234314243333846323333332F617474726962757465732E62696E504B0304140006080800CC70623B08DA0BD19000000041010000360000006662782F36394639363044362D344446342D343946362D394244322D
310
3234314243333846323333332F6469726563746F72792E786D6C858F410AC3201045AF22B36F53E9A60B35CBEEBAE80D244E44489C6234F4F835464A48035D0DF398FF9F8AF63D0E6CC63039F212F8F9020C7D47C6792B21C5FE7403D62A1188E2E60C98D7234A5830286103A55745067B9D86B8A3CF9C7F90C11DE607FB14
310
4396D7B6A82D282E9A152AD114D5EF2CB866EEE831B8EEA07A7BB5A8D7D61A2BAAEB7FD5F70921FF497D00504B0304140006080800CC70623BCA768048FE000000A00100003B0000006662782F36394639363044362D344446342D343946362D394244322D3234314243333846323333332F7265736F75726365732F636F72
310
652E786D6C8D50596E833010BD0A9ADFCA60D600328E9AA639412F609909B1126CE4A5EAF16B0295DABFFECC8CDEA2797AECF8353F924FB44E193D409E5248504B332A3D0D10FC95B4901C39B3C6F85F3248B49871801506CE266BC2B243D2688FDA47549B11775038871E12F988C7004EDE7016A9083E2ADC3D5D84BC8B09
310
D33C8D74D471E6BC8D0192EDC93A815B742658898E651BCB59086ADC356A8C3FD555A1055ED7E7E254D615792D0F075295F585746FF53B694EE78A565DD736979A65AB9933AFE69F8CD2A2F038022F28ED489E135A7CE4554F9BBEA85E68DB53CAB255FEC71496F19FA6A0B42F8B3DEE6673C0F318E4497096AD7DC5F52C33
310
EEB55BFE0D504B010214000A0000080000CC70623B3DEE336E79000000790000001B00000000000000000000000000000000006175746F6465736B2D64657369676E2D7061636B6167652E786D6C504B01021400140006080800CC70623BD486FD9CA0000000F40000001300000000000000000000000000B20000005B436F
310
6E74656E745F54797065735D2E786D6C504B01021400140006080800CC70623BD9DDAED0EC0000007C010000080000000000000000000000000083010000636F72652E786D6C504B01021400140006080800CC70623B55019EA25F0000007C000000070000000000000000000000000095020000636E782E786D6C504B0102
310
1400140006080800CC70623BA24EB22D72010000D40300000C00000000000000000000000000190300006662782F636F72652E786D6C504B01021400140006080800CC70623B408A7D3B7C0000009D0000000B00000000000000000000000000B50400006662782F636E782E786D6C504B01021400140006080800CC70623B
310
449FB9BD290100001202000031000000000000000000000000005A0500006662782F36394639363044362D344446342D343946362D394244322D3234314243333846323333332F636F72652E786D6C504B01021400140006080800CC70623BAD7543B64E010000330300003000000000000000000000000000D20600006662
310
782F36394639363044362D344446342D343946362D394244322D3234314243333846323333332F636E782E786D6C504B01021400140006080800CC70623B8D05915C650500003B10000034000000000000000000000000006E0800006662782F36394639363044362D344446342D343946362D394244322D32343142433338
310
46323333332F6F626A656374732E786D6C504B01021400140006080000CC70623B0000000000000000000000003500000000000000000000000000250E00006662782F36394639363044362D344446342D343946362D394244322D3234314243333846323333332F76657274696365732E62696E504B010214001400060808
310
00CC70623BF270F13306000000040000003600000000000000000000000000780E00006662782F36394639363044362D344446342D343946362D394244322D3234314243333846323333332F747269616E676C65732E62696E504B01021400140006080000CC70623B00000000000000000000000037000000000000000000
310
00000000D20E00006662782F36394639363044362D344446342D343946362D394244322D3234314243333846323333332F617474726962757465732E62696E504B01021400140006080800CC70623B08DA0BD190000000410100003600000000000000000000000000270F00006662782F36394639363044362D344446342D
310
343946362D394244322D3234314243333846323333332F6469726563746F72792E786D6C504B01021400140006080800CC70623BCA768048FE000000A00100003B000000000000000000000000000B1000006662782F36394639363044362D344446342D343946362D394244322D3234314243333846323333332F7265736F
310
75726365732F636F72652E786D6C504B0506000000000E000E0080040000621100000000
  0
XRECORD
  5
176
102
{ACAD_REACTORS
330
173
102
}
330
173
100
AcDbXrecord
280
     1
270
     1
271
     1
  0
XRECORD
  5
177
102
{ACAD_REACTORS
330
173
102
}
330
173
100
AcDbXrecord
280
     1
270
     1
271
     1
  0
XRECORD
  5
C1CD
102
{ACAD_REACTORS
330
C1CC
102
}
330
C1CC
100
AcDbXrecord
280
     1
102
ACAD_ROUNDTRIP_2012_MLEADER_STYLE
298
     1
  0
XRECORD
  5
C1DF
102
{ACAD_REACTORS
330
C1DE
102
}
330
C1DE
100
AcDbXrecord
280
     1
102
DISPLAYNAME
  1
Metric50
102
FLAGS
 90
        0
  0
CELLSTYLEMAP
  5
C19F
102
{ACAD_REACTORS
330
162
102
}
330
162
100
AcDbCellStyleMap
 90
        3
300
CELLSTYLE
  1
TABLEFORMAT_BEGIN
 90
        5
170
     1
 91
        0
 92
    32768
 62
   257
 93
        1
300
CONTENTFORMAT
  1
CONTENTFORMAT_BEGIN
 90
        0
 91
        0
 92
      512
 93
        0
300

 40
0.0
140
1.0
 94
        5
 62
     0
340
11
144
6.0
309
CONTENTFORMAT_END
171
     1
301
MARGIN
  1
CELLMARGIN_BEGIN
 40
1.5
 40
1.5
 40
1.5
 40
1.5
 40
4.5
 40
4.5
309
CELLMARGIN_END
 94
        6
 95
        1
302
GRIDFORMAT
  1
GRIDFORMAT_BEGIN
 90
        0
 91
        1
 62
     0
 92
       -2
340
14
 93
        0
 40
1.125
309
GRIDFORMAT_END
 95
        2
302
GRIDFORMAT
  1
GRIDFORMAT_BEGIN
 90
        0
 91
        1
 62
     0
 92
       -2
340
14
 93
        0
 40
1.125
309
GRIDFORMAT_END
 95
        4
302
GRIDFORMAT
  1
GRIDFORMAT_BEGIN
 90
        0
 91
        1
 62
     0
 92
       -2
340
14
 93
        0
 40
1.125
309
GRIDFORMAT_END
 95
        8
302
GRIDFORMAT
  1
GRIDFORMAT_BEGIN
 90
        0
 91
        1
 62
     0
 92
       -2
340
14
 93
        0
 40
1.125
309
GRIDFORMAT_END
 95
       16
302
GRIDFORMAT
  1
GRIDFORMAT_BEGIN
 90
        0
 91
        1
 62
     0
 92
       -2
340
14
 93
        0
 40
1.125
309
GRIDFORMAT_END
 95
       32
302
GRIDFORMAT
  1
GRIDFORMAT_BEGIN
 90
        0
 91
        1
 62
     0
 92
       -2
340
14
 93
        0
 40
1.125
309
GRIDFORMAT_END
309
TABLEFORMAT_END
  1
CELLSTYLE_BEGIN
 90
        1
 91
        1
300
_TITLE
309
CELLSTYLE_END
300
CELLSTYLE
  1
TABLEFORMAT_BEGIN
 90
        5
170
     1
 91
        0
 92
        0
 62
   257
 93
        1
300
CONTENTFORMAT
  1
CONTENTFORMAT_BEGIN
 90
        0
 91
        0
 92
      512
 93
        0
300

 40
0.0
140
1.0
 94
        5
 62
     0
340
11
144
4.5
309
CONTENTFORMAT_END
171
     1
301
MARGIN
  1
CELLMARGIN_BEGIN
 40
1.5
 40
1.5
 40
1.5
 40
1.5
 40
4.5
 40
4.5
309
CELLMARGIN_END
 94
        6
 95
        1
302
GRIDFORMAT
  1
GRIDFORMAT_BEGIN
 90
        0
 91
        1
 62
     0
 92
       -2
340
14
 93
        0
 40
1.125
309
GRIDFORMAT_END
 95
        2
302
GRIDFORMAT
  1
GRIDFORMAT_BEGIN
 90
        0
 91
        1
 62
     0
 92
       -2
340
14
 93
        0
 40
1.125
309
GRIDFORMAT_END
 95
        4
302
GRIDFORMAT
  1
GRIDFORMAT_BEGIN
 90
        0
 91
        1
 62
     0
 92
       -2
340
14
 93
        0
 40
1.125
309
GRIDFORMAT_END
 95
        8
302
GRIDFORMAT
  1
GRIDFORMAT_BEGIN
 90
        0
 91
        1
 62
     0
 92
       -2
340
14
 93
        0
 40
1.125
309
GRIDFORMAT_END
 95
       16
302
GRIDFORMAT
  1
GRIDFORMAT_BEGIN
 90
        0
 91
        1
 62
     0
 92
       -2
340
14
 93
        0
 40
1.125
309
GRIDFORMAT_END
 95
       32
302
GRIDFORMAT
  1
GRIDFORMAT_BEGIN
 90
        0
 91
        1
 62
     0
 92
       -2
340
14
 93
        0
 40
1.125
309
GRIDFORMAT_END
309
TABLEFORMAT_END
  1
CELLSTYLE_BEGIN
 90
        2
 91
        1
300
_HEADER
309
CELLSTYLE_END
300
CELLSTYLE
  1
TABLEFORMAT_BEGIN
 90
        5
170
     1
 91
        0
 92
        0
 62
   257
 93
        1
300
CONTENTFORMAT
  1
CONTENTFORMAT_BEGIN
 90
        0
 91
        0
 92
      512
 93
        0
300

 40
0.0
140
1.0
 94
        2
 62
     0
340
11
144
4.5
309
CONTENTFORMAT_END
171
     1
301
MARGIN
  1
CELLMARGIN_BEGIN
 40
1.5
 40
1.5
 40
1.5
 40
1.5
 40
4.5
 40
4.5
309
CELLMARGIN_END
 94
        6
 95
        1
302
GRIDFORMAT
  1
GRIDFORMAT_BEGIN
 90
        0
 91
        1
 62
     0
 92
       -2
340
14
 93
        0
 40
1.125
309
GRIDFORMAT_END
 95
        2
302
GRIDFORMAT
  1
GRIDFORMAT_BEGIN
 90
        0
 91
        1
 62
     0
 92
       -2
340
14
 93
        0
 40
1.125
309
GRIDFORMAT_END
 95
        4
302
GRIDFORMAT
  1
GRIDFORMAT_BEGIN
 90
        0
 91
        1
 62
     0
 92
       -2
340
14
 93
        0
 40
1.125
309
GRIDFORMAT_END
 95
        8
302
GRIDFORMAT
  1
GRIDFORMAT_BEGIN
 90
        0
 91
        1
 62
     0
 92
       -2
340
14
 93
        0
 40
1.125
309
GRIDFORMAT_END
 95
       16
302
GRIDFORMAT
  1
GRIDFORMAT_BEGIN
 90
        0
 91
        1
 62
     0
 92
       -2
340
14
 93
        0
 40
1.125
309
GRIDFORMAT_END
 95
       32
302
GRIDFORMAT
  1
GRIDFORMAT_BEGIN
 90
        0
 91
        1
 62
     0
 92
       -2
340
14
 93
        0
 40
1.125
309
GRIDFORMAT_END
309
TABLEFORMAT_END
  1
CELLSTYLE_BEGIN
 90
        3
 91
        2
300
_DATA
309
CELLSTYLE_END
  0
XRECORD
  5
C1A4
102
{ACAD_REACTORS
330
162
102
}
330
162
100
AcDbXrecord
280
     1
102
ACAD_ROUNDTRIP_PRE2007_TABLESTYLE
 90
      512
 91
        0
  1

 92
      512
 93
        0
  2

 94
      512
 95
        0
  3

  0
XRECORD
  5
C1B7
102
{ACAD_REACTORS
330
C1B6
102
}
330
C1B6
100
AcDbXrecord
280
     1
102
RTVSPost2010Prop28
280
     1
102
RTVSPost2010PropOp28
 70
     1
102
RTVSPost2010Prop29
280
     1
102
RTVSPost2010PropOp29
 70
     1
102
RTVSPost2010Prop30
280
     0
102
RTVSPost2010PropOp30
 70
     1
102
RTVSPost2010Prop31
280
     0
102
RTVSPost2010PropOp31
 70
     1
102
RTVSPost2010Prop32
280
     0
102
RTVSPost2010PropOp32
 70
     1
102
RTVSPost2010Prop33
280
     0
102
RTVSPost2010PropOp33
 70
     1
102
RTVSPost2010Prop34
280
     0
102
RTVSPost2010PropOp34
 70
     1
102
RTVSPost2010Prop35
280
     0
102
RTVSPost2010PropOp35
 70
     1
102
RTVSPost2010Prop36
280
     0
102
RTVSPost2010PropOp36
 70
     1
102
RTVSPost2010Prop37
 90
       50
102
RTVSPost2010PropOp37
 70
     1
102
RTVSPost2010Prop38
140
0.0
102
RTVSPost2010PropOp38
 70
     1
102
RTVSPost2010Prop39
140
1.0
102
RTVSPost2010PropOp39
 70
     1
102
RTVSPost2010Prop40
 90
        0
102
RTVSPost2010PropOp40
 70
     1
102
RTVSPost2010Prop41ColorIndex
 90
       18
102
RTVSPost2010Prop41ColorRGB
 90
        0
102
RTVSPost2010PropOp41
 70
     1
102
RTVSPost2010Prop42
 90
       50
102
RTVSPost2010PropOp42
 70
     1
102
RTVSPost2010Prop43
 90
        3
102
RTVSPost2010PropOp43
 70
     1
102
RTVSPost2010Prop44ColorIndex
 90
        5
102
RTVSPost2010Prop44ColorRGB
 90
      255
102
RTVSPost2010PropOp44
 70
     1
102
RTVSPost2010Prop45
280
     0
102
RTVSPost2010PropOp45
 70
     1
102
RTVSPost2010Prop46
 90
       50
102
RTVSPost2010PropOp46
 70
     1
102
RTVSPost2010Prop47
 90
       50
102
RTVSPost2010PropOp47
 70
     1
102
RTVSPost2010Prop48
 90
       50
102
RTVSPost2010PropOp48
 70
     1
102
RTVSPost2010Prop49
280
     0
102
RTVSPost2010PropOp49
 70
     1
102
RTVSPost2010Prop50
 90
       50
102
RTVSPost2010PropOp50
 70
     1
102
RTVSPost2010Prop51ColorIndex
 90
      256
102
RTVSPost2010Prop51ColorRGB
 90
-16777216
102
RTVSPost2010PropOp51
 70
     0
102
RTVSPost2010Prop52
140
1.0
102
RTVSPost2010PropOp52
 70
     0
102
RTVSPost2010Prop53
 90
        2
102
RTVSPost2010PropOp53
 70
     1
102
RTVSPost2010Prop54
  1
strokes_ogs.tif
102
RTVSPost2010PropOp54
 70
     1
102
RTVSPost2010Prop55
280
     0
102
RTVSPost2010PropOp55
 70
     1
102
RTVSPost2010Prop56
140
1.0
102
RTVSPost2010PropOp56
 70
     1
102
RTVSPost2010Prop57
140
1.0
102
RTVSPost2010PropOp57
 70
     1
102
RTVSPropertyOp0
 70
     1
102
RTVSPropertyOp1
 70
     1
102
RTVSPropertyOp2
 70
     1
102
RTVSPropertyOp3
 70
     1
102
RTVSPropertyOp4
 70
     1
102
RTVSPropertyOp5
 70
     1
102
RTVSPropertyOp6
 70
     1
102
RTVSPropertyOp7
 70
     1
102
RTVSPropertyOp8
 70
     1
102
RTVSPropertyOp9
 70
     1
102
RTVSPropertyOp10
 70
     1
102
RTVSPropertyOp11
 70
     1
102
RTVSPropertyOp12
 70
     1
102
RTVSPropertyOp13
 70
     1
102
RTVSPropertyOp14
 70
     1
102
RTVSPropertyOp15
 70
     1
102
RTVSPropertyOp16
 70
     1
102
RTVSPropertyOp17
 70
     1
102
RTVSPropertyOp18
 70
     1
102
RTVSPropertyOp19
 70
     1
102
RTVSPropertyOp20
 70
     1
102
RTVSPropertyOp21
 70
     1
102
RTVSPropertyOp22
 70
     1
102
RTVSPropertyOp23
 70
     1
102
RTVSPropertyOp24
 70
     1
102
RTVSPropertyOp25
 70
     1
102
RTVSPropertyOp26
 70
     1
102
RTVSPropertyOp27
 70
     1
102
RTVSPropertyOp28
 70
     1
102
RTVSPropertyOp29
 70
     1
102
RTVSPropertyOp30
 70
     1
102
RTVSPropertyOp31
 70
     1
102
RTVSPropertyOp32
 70
     1
102
RTVSPropertyOp33
 70
     1
102
RTVSPropertyOp34
 70
     1
102
RTVSPropertyOp35
 70
     1
102
RTVSPropertyOp36
 70
     1
102
RTVSPropertyOp37
 70
     1
102
RTVSPropertyOp38
 70
     1
102
RTVSPropertyOp39
 70
     1
102
RTVSPropertyOp40
 70
     1
102
RTVSPropertyOp41
 70
     1
102
RTVSPropertyOp42
 70
     1
102
RTVSPropertyOp43
 70
     1
102
RTVSPropertyOp44
 70
     1
102
RTVSPropertyOp45
 70
     1
102
RTVSPropertyOp46
 70
     1
102
RTVSPropertyOp47
 70
     1
102
RTVSPropertyOp48
 70
     1
102
RTVSPropertyOp49
 70
     1
102
RTVSPropertyOp50
 70
     1
102
RTVSPropertyOp51
 70
     0
102
RTVSPropertyOp52
 70
     0
102
RTVSPropertyOp53
 70
     1
102
RTVSPropertyOp54
 70
     1
102
RTVSPropertyOp55
 70
     1
102
RTVSPropertyOp56
 70
     1
102
RTVSPropertyOp57
 70
     1
102
RTVSPropertyOp58
 70
     1
102
RTVSPropertyOp59
 70
     1
102
RTVSPropertyOp60
 70
     1
102
RTVSPropertyOp61
 70
     1
102
RTVSPropertyOp62
 70
     1
  0
XRECORD
  5
C1B5
102
{ACAD_REACTORS
330
C1B4
102
}
330
C1B4
100
AcDbXrecord
280
     1
102
RTVSPost2010Prop28
280
     0
102
RTVSPost2010PropOp28
 70
     1
102
RTVSPost2010Prop29
280
     1
102
RTVSPost2010PropOp29
 70
     1
102
RTVSPost2010Prop30
280
     1
102
RTVSPost2010PropOp30
 70
     1
102
RTVSPost2010Prop31
280
     0
102
RTVSPost2010PropOp31
 70
     1
102
RTVSPost2010Prop32
280
     0
102
RTVSPost2010PropOp32
 70
     1
102
RTVSPost2010Prop33
280
     0
102
RTVSPost2010PropOp33
 70
     1
102
RTVSPost2010Prop34
280
     0
102
RTVSPost2010PropOp34
 70
     1
102
RTVSPost2010Prop35
280
     0
102
RTVSPost2010PropOp35
 70
     1
102
RTVSPost2010Prop36
280
     0
102
RTVSPost2010PropOp36
 70
     1
102
RTVSPost2010Prop37
 90
       50
102
RTVSPost2010PropOp37
 70
     1
102
RTVSPost2010Prop38
140
0.0
102
RTVSPost2010PropOp38
 70
     1
102
RTVSPost2010Prop39
140
1.0
102
RTVSPost2010PropOp39
 70
     1
102
RTVSPost2010Prop40
 90
        0
102
RTVSPost2010PropOp40
 70
     1
102
RTVSPost2010Prop41ColorIndex
 90
       18
102
RTVSPost2010Prop41ColorRGB
 90
        0
102
RTVSPost2010PropOp41
 70
     1
102
RTVSPost2010Prop42
 90
       50
102
RTVSPost2010PropOp42
 70
     1
102
RTVSPost2010Prop43
 90
        3
102
RTVSPost2010PropOp43
 70
     1
102
RTVSPost2010Prop44ColorIndex
 90
        5
102
RTVSPost2010Prop44ColorRGB
 90
      255
102
RTVSPost2010PropOp44
 70
     1
102
RTVSPost2010Prop45
280
     0
102
RTVSPost2010PropOp45
 70
     1
102
RTVSPost2010Prop46
 90
       50
102
RTVSPost2010PropOp46
 70
     1
102
RTVSPost2010Prop47
 90
       50
102
RTVSPost2010PropOp47
 70
     1
102
RTVSPost2010Prop48
 90
       50
102
RTVSPost2010PropOp48
 70
     1
102
RTVSPost2010Prop49
280
     0
102
RTVSPost2010PropOp49
 70
     1
102
RTVSPost2010Prop50
 90
       50
102
RTVSPost2010PropOp50
 70
     1
102
RTVSPost2010Prop51ColorIndex
 90
      256
102
RTVSPost2010Prop51ColorRGB
 90
-16777216
102
RTVSPost2010PropOp51
 70
     0
102
RTVSPost2010Prop52
140
1.0
102
RTVSPost2010PropOp52
 70
     0
102
RTVSPost2010Prop53
 90
        2
102
RTVSPost2010PropOp53
 70
     1
102
RTVSPost2010Prop54
  1
strokes_ogs.tif
102
RTVSPost2010PropOp54
 70
     1
102
RTVSPost2010Prop55
280
     0
102
RTVSPost2010PropOp55
 70
     1
102
RTVSPost2010Prop56
140
1.0
102
RTVSPost2010PropOp56
 70
     1
102
RTVSPost2010Prop57
140
1.0
102
RTVSPost2010PropOp57
 70
     1
102
RTVSPropertyOp0
 70
     1
102
RTVSPropertyOp1
 70
     1
102
RTVSPropertyOp2
 70
     1
102
RTVSPropertyOp3
 70
     1
102
RTVSPropertyOp4
 70
     1
102
RTVSPropertyOp5
 70
     1
102
RTVSPropertyOp6
 70
     1
102
RTVSPropertyOp7
 70
     1
102
RTVSPropertyOp8
 70
     1
102
RTVSPropertyOp9
 70
     1
102
RTVSPropertyOp10
 70
     1
102
RTVSPropertyOp11
 70
     1
102
RTVSPropertyOp12
 70
     1
102
RTVSPropertyOp13
 70
     1
102
RTVSPropertyOp14
 70
     1
102
RTVSPropertyOp15
 70
     1
102
RTVSPropertyOp16
 70
     1
102
RTVSPropertyOp17
 70
     1
102
RTVSPropertyOp18
 70
     1
102
RTVSPropertyOp19
 70
     1
102
RTVSPropertyOp20
 70
     1
102
RTVSPropertyOp21
 70
     1
102
RTVSPropertyOp22
 70
     1
102
RTVSPropertyOp23
 70
     1
102
RTVSPropertyOp24
 70
     1
102
RTVSPropertyOp25
 70
     1
102
RTVSPropertyOp26
 70
     1
102
RTVSPropertyOp27
 70
     1
102
RTVSPropertyOp28
 70
     1
102
RTVSPropertyOp29
 70
     1
102
RTVSPropertyOp30
 70
     1
102
RTVSPropertyOp31
 70
     1
102
RTVSPropertyOp32
 70
     1
102
RTVSPropertyOp33
 70
     1
102
RTVSPropertyOp34
 70
     1
102
RTVSPropertyOp35
 70
     1
102
RTVSPropertyOp36
 70
     1
102
RTVSPropertyOp37
 70
     1
102
RTVSPropertyOp38
 70
     1
102
RTVSPropertyOp39
 70
     1
102
RTVSPropertyOp40
 70
     1
102
RTVSPropertyOp41
 70
     1
102
RTVSPropertyOp42
 70
     1
102
RTVSPropertyOp43
 70
     1
102
RTVSPropertyOp44
 70
     1
102
RTVSPropertyOp45
 70
     1
102
RTVSPropertyOp46
 70
     1
102
RTVSPropertyOp47
 70
     1
102
RTVSPropertyOp48
 70
     1
102
RTVSPropertyOp49
 70
     1
102
RTVSPropertyOp50
 70
     1
102
RTVSPropertyOp51
 70
     0
102
RTVSPropertyOp52
 70
     0
102
RTVSPropertyOp53
 70
     1
102
RTVSPropertyOp54
 70
     1
102
RTVSPropertyOp55
 70
     1
102
RTVSPropertyOp56
 70
     1
102
RTVSPropertyOp57
 70
     1
102
RTVSPropertyOp58
 70
     1
102
RTVSPropertyOp59
 70
     1
102
RTVSPropertyOp60
 70
     1
102
RTVSPropertyOp61
 70
     1
102
RTVSPropertyOp62
 70
     1
  0
XRECORD
  5
C1C3
102
{ACAD_REACTORS
330
C1C2
102
}
330
C1C2
100
AcDbXrecord
280
     1
102
RTVSPost2010Prop28
280
     0
102
RTVSPost2010PropOp28
 70
     1
102
RTVSPost2010Prop29
280
     1
102
RTVSPost2010PropOp29
 70
     1
102
RTVSPost2010Prop30
280
     1
102
RTVSPost2010PropOp30
 70
     1
102
RTVSPost2010Prop31
280
     0
102
RTVSPost2010PropOp31
 70
     1
102
RTVSPost2010Prop32
280
     0
102
RTVSPost2010PropOp32
 70
     1
102
RTVSPost2010Prop33
280
     0
102
RTVSPost2010PropOp33
 70
     1
102
RTVSPost2010Prop34
280
     0
102
RTVSPost2010PropOp34
 70
     1
102
RTVSPost2010Prop35
280
     0
102
RTVSPost2010PropOp35
 70
     1
102
RTVSPost2010Prop36
280
     0
102
RTVSPost2010PropOp36
 70
     1
102
RTVSPost2010Prop37
 90
       50
102
RTVSPost2010PropOp37
 70
     1
102
RTVSPost2010Prop38
140
0.0
102
RTVSPost2010PropOp38
 70
     1
102
RTVSPost2010Prop39
140
1.0
102
RTVSPost2010PropOp39
 70
     1
102
RTVSPost2010Prop40
 90
        0
102
RTVSPost2010PropOp40
 70
     1
102
RTVSPost2010Prop41ColorIndex
 90
       18
102
RTVSPost2010Prop41ColorRGB
 90
        0
102
RTVSPost2010PropOp41
 70
     1
102
RTVSPost2010Prop42
 90
       50
102
RTVSPost2010PropOp42
 70
     1
102
RTVSPost2010Prop43
 90
        3
102
RTVSPost2010PropOp43
 70
     1
102
RTVSPost2010Prop44ColorIndex
 90
        5
102
RTVSPost2010Prop44ColorRGB
 90
      255
102
RTVSPost2010PropOp44
 70
     1
102
RTVSPost2010Prop45
280
     0
102
RTVSPost2010PropOp45
 70
     1
102
RTVSPost2010Prop46
 90
       50
102
RTVSPost2010PropOp46
 70
     1
102
RTVSPost2010Prop47
 90
       50
102
RTVSPost2010PropOp47
 70
     1
102
RTVSPost2010Prop48
 90
       50
102
RTVSPost2010PropOp48
 70
     1
102
RTVSPost2010Prop49
280
     0
102
RTVSPost2010PropOp49
 70
     1
102
RTVSPost2010Prop50
 90
       50
102
RTVSPost2010PropOp50
 70
     1
102
RTVSPost2010Prop51ColorIndex
 90
      256
102
RTVSPost2010Prop51ColorRGB
 90
-16777216
102
RTVSPost2010PropOp51
 70
     0
102
RTVSPost2010Prop52
140
1.0
102
RTVSPost2010PropOp52
 70
     0
102
RTVSPost2010Prop53
 90
        2
102
RTVSPost2010PropOp53
 70
     1
102
RTVSPost2010Prop54
  1
strokes_ogs.tif
102
RTVSPost2010PropOp54
 70
     1
102
RTVSPost2010Prop55
280
     0
102
RTVSPost2010PropOp55
 70
     1
102
RTVSPost2010Prop56
140
1.0
102
RTVSPost2010PropOp56
 70
     1
102
RTVSPost2010Prop57
140
1.0
102
RTVSPost2010PropOp57
 70
     1
102
RTVSPropertyOp0
 70
     1
102
RTVSPropertyOp1
 70
     1
102
RTVSPropertyOp2
 70
     1
102
RTVSPropertyOp3
 70
     1
102
RTVSPropertyOp4
 70
     1
102
RTVSPropertyOp5
 70
     1
102
RTVSPropertyOp6
 70
     1
102
RTVSPropertyOp7
 70
     1
102
RTVSPropertyOp8
 70
     1
102
RTVSPropertyOp9
 70
     1
102
RTVSPropertyOp10
 70
     1
102
RTVSPropertyOp11
 70
     1
102
RTVSPropertyOp12
 70
     1
102
RTVSPropertyOp13
 70
     1
102
RTVSPropertyOp14
 70
     1
102
RTVSPropertyOp15
 70
     1
102
RTVSPropertyOp16
 70
     1
102
RTVSPropertyOp17
 70
     1
102
RTVSPropertyOp18
 70
     1
102
RTVSPropertyOp19
 70
     1
102
RTVSPropertyOp20
 70
     1
102
RTVSPropertyOp21
 70
     1
102
RTVSPropertyOp22
 70
     1
102
RTVSPropertyOp23
 70
     1
102
RTVSPropertyOp24
 70
     1
102
RTVSPropertyOp25
 70
     1
102
RTVSPropertyOp26
 70
     1
102
RTVSPropertyOp27
 70
     1
102
RTVSPropertyOp28
 70
     1
102
RTVSPropertyOp29
 70
     1
102
RTVSPropertyOp30
 70
     1
102
RTVSPropertyOp31
 70
     1
102
RTVSPropertyOp32
 70
     1
102
RTVSPropertyOp33
 70
     1
102
RTVSPropertyOp34
 70
     1
102
RTVSPropertyOp35
 70
     1
102
RTVSPropertyOp36
 70
     1
102
RTVSPropertyOp37
 70
     1
102
RTVSPropertyOp38
 70
     1
102
RTVSPropertyOp39
 70
     1
102
RTVSPropertyOp40
 70
     1
102
RTVSPropertyOp41
 70
     1
102
RTVSPropertyOp42
 70
     1
102
RTVSPropertyOp43
 70
     1
102
RTVSPropertyOp44
 70
     1
102
RTVSPropertyOp45
 70
     1
102
RTVSPropertyOp46
 70
     1
102
RTVSPropertyOp47
 70
     1
102
RTVSPropertyOp48
 70
     1
102
RTVSPropertyOp49
 70
     1
102
RTVSPropertyOp50
 70
     1
102
RTVSPropertyOp51
 70
     0
102
RTVSPropertyOp52
 70
     0
102
RTVSPropertyOp53
 70
     1
102
RTVSPropertyOp54
 70
     1
102
RTVSPropertyOp55
 70
     1
102
RTVSPropertyOp56
 70
     1
102
RTVSPropertyOp57
 70
     1
102
RTVSPropertyOp58
 70
     1
102
RTVSPropertyOp59
 70
     1
102
RTVSPropertyOp60
 70
     1
102
RTVSPropertyOp61
 70
     1
102
RTVSPropertyOp62
 70
     1
  0
XRECORD
  5
C1CB
102
{ACAD_REACTORS
330
C1CA
102
}
330
C1CA
100
AcDbXrecord
280
     1
102
RTVSPost2010Prop28
280
     0
102
RTVSPost2010PropOp28
 70
     1
102
RTVSPost2010Prop29
280
     1
102
RTVSPost2010PropOp29
 70
     1
102
RTVSPost2010Prop30
280
     1
102
RTVSPost2010PropOp30
 70
     1
102
RTVSPost2010Prop31
280
     0
102
RTVSPost2010PropOp31
 70
     1
102
RTVSPost2010Prop32
280
     0
102
RTVSPost2010PropOp32
 70
     1
102
RTVSPost2010Prop33
280
     0
102
RTVSPost2010PropOp33
 70
     1
102
RTVSPost2010Prop34
280
     0
102
RTVSPost2010PropOp34
 70
     1
102
RTVSPost2010Prop35
280
     0
102
RTVSPost2010PropOp35
 70
     1
102
RTVSPost2010Prop36
280
     0
102
RTVSPost2010PropOp36
 70
     1
102
RTVSPost2010Prop37
 90
       50
102
RTVSPost2010PropOp37
 70
     1
102
RTVSPost2010Prop38
140
0.0
102
RTVSPost2010PropOp38
 70
     1
102
RTVSPost2010Prop39
140
1.0
102
RTVSPost2010PropOp39
 70
     1
102
RTVSPost2010Prop40
 90
        0
102
RTVSPost2010PropOp40
 70
     1
102
RTVSPost2010Prop41ColorIndex
 90
       18
102
RTVSPost2010Prop41ColorRGB
 90
        0
102
RTVSPost2010PropOp41
 70
     1
102
RTVSPost2010Prop42
 90
       50
102
RTVSPost2010PropOp42
 70
     1
102
RTVSPost2010Prop43
 90
        3
102
RTVSPost2010PropOp43
 70
     1
102
RTVSPost2010Prop44ColorIndex
 90
        5
102
RTVSPost2010Prop44ColorRGB
 90
      255
102
RTVSPost2010PropOp44
 70
     1
102
RTVSPost2010Prop45
280
     0
102
RTVSPost2010PropOp45
 70
     1
102
RTVSPost2010Prop46
 90
       50
102
RTVSPost2010PropOp46
 70
     1
102
RTVSPost2010Prop47
 90
       50
102
RTVSPost2010PropOp47
 70
     1
102
RTVSPost2010Prop48
 90
       50
102
RTVSPost2010PropOp48
 70
     1
102
RTVSPost2010Prop49
280
     0
102
RTVSPost2010PropOp49
 70
     1
102
RTVSPost2010Prop50
 90
       50
102
RTVSPost2010PropOp50
 70
     1
102
RTVSPost2010Prop51ColorIndex
 90
      256
102
RTVSPost2010Prop51ColorRGB
 90
-16777216
102
RTVSPost2010PropOp51
 70
     0
102
RTVSPost2010Prop52
140
1.0
102
RTVSPost2010PropOp52
 70
     0
102
RTVSPost2010Prop53
 90
        2
102
RTVSPost2010PropOp53
 70
     1
102
RTVSPost2010Prop54
  1
strokes_ogs.tif
102
RTVSPost2010PropOp54
 70
     1
102
RTVSPost2010Prop55
280
     0
102
RTVSPost2010PropOp55
 70
     1
102
RTVSPost2010Prop56
140
1.0
102
RTVSPost2010PropOp56
 70
     1
102
RTVSPost2010Prop57
140
1.0
102
RTVSPost2010PropOp57
 70
     1
102
RTVSPropertyOp0
 70
     1
102
RTVSPropertyOp1
 70
     1
102
RTVSPropertyOp2
 70
     1
102
RTVSPropertyOp3
 70
     1
102
RTVSPropertyOp4
 70
     1
102
RTVSPropertyOp5
 70
     1
102
RTVSPropertyOp6
 70
     1
102
RTVSPropertyOp7
 70
     1
102
RTVSPropertyOp8
 70
     1
102
RTVSPropertyOp9
 70
     1
102
RTVSPropertyOp10
 70
     1
102
RTVSPropertyOp11
 70
     1
102
RTVSPropertyOp12
 70
     1
102
RTVSPropertyOp13
 70
     1
102
RTVSPropertyOp14
 70
     1
102
RTVSPropertyOp15
 70
     1
102
RTVSPropertyOp16
 70
     1
102
RTVSPropertyOp17
 70
     1
102
RTVSPropertyOp18
 70
     1
102
RTVSPropertyOp19
 70
     1
102
RTVSPropertyOp20
 70
     1
102
RTVSPropertyOp21
 70
     1
102
RTVSPropertyOp22
 70
     1
102
RTVSPropertyOp23
 70
     1
102
RTVSPropertyOp24
 70
     1
102
RTVSPropertyOp25
 70
     1
102
RTVSPropertyOp26
 70
     1
102
RTVSPropertyOp27
 70
     1
102
RTVSPropertyOp28
 70
     1
102
RTVSPropertyOp29
 70
     1
102
RTVSPropertyOp30
 70
     1
102
RTVSPropertyOp31
 70
     1
102
RTVSPropertyOp32
 70
     1
102
RTVSPropertyOp33
 70
     1
102
RTVSPropertyOp34
 70
     1
102
RTVSPropertyOp35
 70
     1
102
RTVSPropertyOp36
 70
     1
102
RTVSPropertyOp37
 70
     1
102
RTVSPropertyOp38
 70
     1
102
RTVSPropertyOp39
 70
     1
102
RTVSPropertyOp40
 70
     1
102
RTVSPropertyOp41
 70
     1
102
RTVSPropertyOp42
 70
     1
102
RTVSPropertyOp43
 70
     1
102
RTVSPropertyOp44
 70
     1
102
RTVSPropertyOp45
 70
     1
102
RTVSPropertyOp46
 70
     1
102
RTVSPropertyOp47
 70
     1
102
RTVSPropertyOp48
 70
     1
102
RTVSPropertyOp49
 70
     1
102
RTVSPropertyOp50
 70
     1
102
RTVSPropertyOp51
 70
     0
102
RTVSPropertyOp52
 70
     0
102
RTVSPropertyOp53
 70
     1
102
RTVSPropertyOp54
 70
     1
102
RTVSPropertyOp55
 70
     1
102
RTVSPropertyOp56
 70
     1
102
RTVSPropertyOp57
 70
     1
102
RTVSPropertyOp58
 70
     1
102
RTVSPropertyOp59
 70
     1
102
RTVSPropertyOp60
 70
     1
102
RTVSPropertyOp61
 70
     1
102
RTVSPropertyOp62
 70
     1
  0
XRECORD
  5
C1BD
102
{ACAD_REACTORS
330
C1BC
102
}
330
C1BC
100
AcDbXrecord
280
     1
102
RTVSPost2010Prop28
280
     0
102
RTVSPost2010PropOp28
 70
     1
102
RTVSPost2010Prop29
280
     1
102
RTVSPost2010PropOp29
 70
     1
102
RTVSPost2010Prop30
280
     1
102
RTVSPost2010PropOp30
 70
     1
102
RTVSPost2010Prop31
280
     0
102
RTVSPost2010PropOp31
 70
     1
102
RTVSPost2010Prop32
280
     0
102
RTVSPost2010PropOp32
 70
     1
102
RTVSPost2010Prop33
280
     0
102
RTVSPost2010PropOp33
 70
     1
102
RTVSPost2010Prop34
280
     0
102
RTVSPost2010PropOp34
 70
     1
102
RTVSPost2010Prop35
280
     0
102
RTVSPost2010PropOp35
 70
     1
102
RTVSPost2010Prop36
280
     0
102
RTVSPost2010PropOp36
 70
     1
102
RTVSPost2010Prop37
 90
       50
102
RTVSPost2010PropOp37
 70
     1
102
RTVSPost2010Prop38
140
0.0
102
RTVSPost2010PropOp38
 70
     1
102
RTVSPost2010Prop39
140
1.0
102
RTVSPost2010PropOp39
 70
     1
102
RTVSPost2010Prop40
 90
        0
102
RTVSPost2010PropOp40
 70
     1
102
RTVSPost2010Prop41ColorIndex
 90
       18
102
RTVSPost2010Prop41ColorRGB
 90
        0
102
RTVSPost2010PropOp41
 70
     1
102
RTVSPost2010Prop42
 90
       50
102
RTVSPost2010PropOp42
 70
     1
102
RTVSPost2010Prop43
 90
        3
102
RTVSPost2010PropOp43
 70
     1
102
RTVSPost2010Prop44ColorIndex
 90
        5
102
RTVSPost2010Prop44ColorRGB
 90
      255
102
RTVSPost2010PropOp44
 70
     1
102
RTVSPost2010Prop45
280
     0
102
RTVSPost2010PropOp45
 70
     1
102
RTVSPost2010Prop46
 90
       50
102
RTVSPost2010PropOp46
 70
     1
102
RTVSPost2010Prop47
 90
       50
102
RTVSPost2010PropOp47
 70
     1
102
RTVSPost2010Prop48
 90
       50
102
RTVSPost2010PropOp48
 70
     1
102
RTVSPost2010Prop49
280
     0
102
RTVSPost2010PropOp49
 70
     1
102
RTVSPost2010Prop50
 90
       50
102
RTVSPost2010PropOp50
 70
     1
102
RTVSPost2010Prop51ColorIndex
 90
      256
102
RTVSPost2010Prop51ColorRGB
 90
-16777216
102
RTVSPost2010PropOp51
 70
     0
102
RTVSPost2010Prop52
140
1.0
102
RTVSPost2010PropOp52
 70
     0
102
RTVSPost2010Prop53
 90
        2
102
RTVSPost2010PropOp53
 70
     1
102
RTVSPost2010Prop54
  1
strokes_ogs.tif
102
RTVSPost2010PropOp54
 70
     1
102
RTVSPost2010Prop55
280
     0
102
RTVSPost2010PropOp55
 70
     1
102
RTVSPost2010Prop56
140
1.0
102
RTVSPost2010PropOp56
 70
     1
102
RTVSPost2010Prop57
140
1.0
102
RTVSPost2010PropOp57
 70
     1
102
RTVSPropertyOp0
 70
     1
102
RTVSPropertyOp1
 70
     1
102
RTVSPropertyOp2
 70
     1
102
RTVSPropertyOp3
 70
     1
102
RTVSPropertyOp4
 70
     1
102
RTVSPropertyOp5
 70
     1
102
RTVSPropertyOp6
 70
     1
102
RTVSPropertyOp7
 70
     1
102
RTVSPropertyOp8
 70
     1
102
RTVSPropertyOp9
 70
     1
102
RTVSPropertyOp10
 70
     1
102
RTVSPropertyOp11
 70
     1
102
RTVSPropertyOp12
 70
     1
102
RTVSPropertyOp13
 70
     1
102
RTVSPropertyOp14
 70
     1
102
RTVSPropertyOp15
 70
     1
102
RTVSPropertyOp16
 70
     1
102
RTVSPropertyOp17
 70
     1
102
RTVSPropertyOp18
 70
     1
102
RTVSPropertyOp19
 70
     1
102
RTVSPropertyOp20
 70
     1
102
RTVSPropertyOp21
 70
     1
102
RTVSPropertyOp22
 70
     1
102
RTVSPropertyOp23
 70
     1
102
RTVSPropertyOp24
 70
     1
102
RTVSPropertyOp25
 70
     1
102
RTVSPropertyOp26
 70
     1
102
RTVSPropertyOp27
 70
     1
102
RTVSPropertyOp28
 70
     1
102
RTVSPropertyOp29
 70
     1
102
RTVSPropertyOp30
 70
     1
102
RTVSPropertyOp31
 70
     1
102
RTVSPropertyOp32
 70
     1
102
RTVSPropertyOp33
 70
     1
102
RTVSPropertyOp34
 70
     1
102
RTVSPropertyOp35
 70
     1
102
RTVSPropertyOp36
 70
     1
102
RTVSPropertyOp37
 70
     1
102
RTVSPropertyOp38
 70
     1
102
RTVSPropertyOp39
 70
     1
102
RTVSPropertyOp40
 70
     1
102
RTVSPropertyOp41
 70
     1
102
RTVSPropertyOp42
 70
     1
102
RTVSPropertyOp43
 70
     1
102
RTVSPropertyOp44
 70
     1
102
RTVSPropertyOp45
 70
     1
102
RTVSPropertyOp46
 70
     1
102
RTVSPropertyOp47
 70
     1
102
RTVSPropertyOp48
 70
     1
102
RTVSPropertyOp49
 70
     1
102
RTVSPropertyOp50
 70
     1
102
RTVSPropertyOp51
 70
     0
102
RTVSPropertyOp52
 70
     0
102
RTVSPropertyOp53
 70
     1
102
RTVSPropertyOp54
 70
     1
102
RTVSPropertyOp55
 70
     1
102
RTVSPropertyOp56
 70
     1
102
RTVSPropertyOp57
 70
     1
102
RTVSPropertyOp58
 70
     1
102
RTVSPropertyOp59
 70
     1
102
RTVSPropertyOp60
 70
     1
102
RTVSPropertyOp61
 70
     1
102
RTVSPropertyOp62
 70
     1
  0
XRECORD
  5
C1C1
102
{ACAD_REACTORS
330
C1C0
102
}
330
C1C0
100
AcDbXrecord
280
     1
102
RTVSPost2010Prop28
280
     0
102
RTVSPost2010PropOp28
 70
     1
102
RTVSPost2010Prop29
280
     1
102
RTVSPost2010PropOp29
 70
     1
102
RTVSPost2010Prop30
280
     1
102
RTVSPost2010PropOp30
 70
     1
102
RTVSPost2010Prop31
280
     0
102
RTVSPost2010PropOp31
 70
     1
102
RTVSPost2010Prop32
280
     0
102
RTVSPost2010PropOp32
 70
     1
102
RTVSPost2010Prop33
280
     0
102
RTVSPost2010PropOp33
 70
     1
102
RTVSPost2010Prop34
280
     0
102
RTVSPost2010PropOp34
 70
     1
102
RTVSPost2010Prop35
280
     0
102
RTVSPost2010PropOp35
 70
     1
102
RTVSPost2010Prop36
280
     0
102
RTVSPost2010PropOp36
 70
     1
102
RTVSPost2010Prop37
 90
       50
102
RTVSPost2010PropOp37
 70
     1
102
RTVSPost2010Prop38
140
0.0
102
RTVSPost2010PropOp38
 70
     1
102
RTVSPost2010Prop39
140
1.0
102
RTVSPost2010PropOp39
 70
     1
102
RTVSPost2010Prop40
 90
        0
102
RTVSPost2010PropOp40
 70
     1
102
RTVSPost2010Prop41ColorIndex
 90
       18
102
RTVSPost2010Prop41ColorRGB
 90
        0
102
RTVSPost2010PropOp41
 70
     1
102
RTVSPost2010Prop42
 90
       50
102
RTVSPost2010PropOp42
 70
     1
102
RTVSPost2010Prop43
 90
        3
102
RTVSPost2010PropOp43
 70
     1
102
RTVSPost2010Prop44ColorIndex
 90
        5
102
RTVSPost2010Prop44ColorRGB
 90
      255
102
RTVSPost2010PropOp44
 70
     1
102
RTVSPost2010Prop45
280
     0
102
RTVSPost2010PropOp45
 70
     1
102
RTVSPost2010Prop46
 90
       50
102
RTVSPost2010PropOp46
 70
     1
102
RTVSPost2010Prop47
 90
       50
102
RTVSPost2010PropOp47
 70
     1
102
RTVSPost2010Prop48
 90
       50
102
RTVSPost2010PropOp48
 70
     1
102
RTVSPost2010Prop49
280
     0
102
RTVSPost2010PropOp49
 70
     1
102
RTVSPost2010Prop50
 90
       50
102
RTVSPost2010PropOp50
 70
     1
102
RTVSPost2010Prop51ColorIndex
 90
      256
102
RTVSPost2010Prop51ColorRGB
 90
-16777216
102
RTVSPost2010PropOp51
 70
     0
102
RTVSPost2010Prop52
140
1.0
102
RTVSPost2010PropOp52
 70
     0
102
RTVSPost2010Prop53
 90
        2
102
RTVSPost2010PropOp53
 70
     1
102
RTVSPost2010Prop54
  1
strokes_ogs.tif
102
RTVSPost2010PropOp54
 70
     1
102
RTVSPost2010Prop55
280
     0
102
RTVSPost2010PropOp55
 70
     1
102
RTVSPost2010Prop56
140
1.0
102
RTVSPost2010PropOp56
 70
     1
102
RTVSPost2010Prop57
140
1.0
102
RTVSPost2010PropOp57
 70
     1
102
RTVSPropertyOp0
 70
     1
102
RTVSPropertyOp1
 70
     1
102
RTVSPropertyOp2
 70
     1
102
RTVSPropertyOp3
 70
     1
102
RTVSPropertyOp4
 70
     1
102
RTVSPropertyOp5
 70
     1
102
RTVSPropertyOp6
 70
     1
102
RTVSPropertyOp7
 70
     1
102
RTVSPropertyOp8
 70
     1
102
RTVSPropertyOp9
 70
     1
102
RTVSPropertyOp10
 70
     1
102
RTVSPropertyOp11
 70
     1
102
RTVSPropertyOp12
 70
     1
102
RTVSPropertyOp13
 70
     1
102
RTVSPropertyOp14
 70
     1
102
RTVSPropertyOp15
 70
     1
102
RTVSPropertyOp16
 70
     1
102
RTVSPropertyOp17
 70
     1
102
RTVSPropertyOp18
 70
     1
102
RTVSPropertyOp19
 70
     1
102
RTVSPropertyOp20
 70
     1
102
RTVSPropertyOp21
 70
     1
102
RTVSPropertyOp22
 70
     1
102
RTVSPropertyOp23
 70
     1
102
RTVSPropertyOp24
 70
     1
102
RTVSPropertyOp25
 70
     1
102
RTVSPropertyOp26
 70
     1
102
RTVSPropertyOp27
 70
     1
102
RTVSPropertyOp28
 70
     1
102
RTVSPropertyOp29
 70
     1
102
RTVSPropertyOp30
 70
     1
102
RTVSPropertyOp31
 70
     1
102
RTVSPropertyOp32
 70
     1
102
RTVSPropertyOp33
 70
     1
102
RTVSPropertyOp34
 70
     1
102
RTVSPropertyOp35
 70
     1
102
RTVSPropertyOp36
 70
     1
102
RTVSPropertyOp37
 70
     1
102
RTVSPropertyOp38
 70
     1
102
RTVSPropertyOp39
 70
     1
102
RTVSPropertyOp40
 70
     1
102
RTVSPropertyOp41
 70
     1
102
RTVSPropertyOp42
 70
     1
102
RTVSPropertyOp43
 70
     1
102
RTVSPropertyOp44
 70
     1
102
RTVSPropertyOp45
 70
     1
102
RTVSPropertyOp46
 70
     1
102
RTVSPropertyOp47
 70
     1
102
RTVSPropertyOp48
 70
     1
102
RTVSPropertyOp49
 70
     1
102
RTVSPropertyOp50
 70
     1
102
RTVSPropertyOp51
 70
     0
102
RTVSPropertyOp52
 70
     0
102
RTVSPropertyOp53
 70
     1
102
RTVSPropertyOp54
 70
     1
102
RTVSPropertyOp55
 70
     1
102
RTVSPropertyOp56
 70
     1
102
RTVSPropertyOp57
 70
     1
102
RTVSPropertyOp58
 70
     1
102
RTVSPropertyOp59
 70
     1
102
RTVSPropertyOp60
 70
     1
102
RTVSPropertyOp61
 70
     1
102
RTVSPropertyOp62
 70
     1
  0
XRECORD
  5
C1D3
102
{ACAD_REACTORS
330
C1D2
102
}
330
C1D2
100
AcDbXrecord
280
     1
102
RTVSPost2010Prop28
280
     0
102
RTVSPost2010PropOp28
 70
     1
102
RTVSPost2010Prop29
280
     1
102
RTVSPost2010PropOp29
 70
     1
102
RTVSPost2010Prop30
280
     1
102
RTVSPost2010PropOp30
 70
     1
102
RTVSPost2010Prop31
280
     0
102
RTVSPost2010PropOp31
 70
     1
102
RTVSPost2010Prop32
280
     0
102
RTVSPost2010PropOp32
 70
     1
102
RTVSPost2010Prop33
280
     0
102
RTVSPost2010PropOp33
 70
     1
102
RTVSPost2010Prop34
280
     0
102
RTVSPost2010PropOp34
 70
     1
102
RTVSPost2010Prop35
280
     0
102
RTVSPost2010PropOp35
 70
     1
102
RTVSPost2010Prop36
280
     0
102
RTVSPost2010PropOp36
 70
     1
102
RTVSPost2010Prop37
 90
       50
102
RTVSPost2010PropOp37
 70
     1
102
RTVSPost2010Prop38
140
0.0
102
RTVSPost2010PropOp38
 70
     1
102
RTVSPost2010Prop39
140
1.0
102
RTVSPost2010PropOp39
 70
     1
102
RTVSPost2010Prop40
 90
        0
102
RTVSPost2010PropOp40
 70
     1
102
RTVSPost2010Prop41ColorIndex
 90
       18
102
RTVSPost2010Prop41ColorRGB
 90
        0
102
RTVSPost2010PropOp41
 70
     1
102
RTVSPost2010Prop42
 90
       50
102
RTVSPost2010PropOp42
 70
     1
102
RTVSPost2010Prop43
 90
        3
102
RTVSPost2010PropOp43
 70
     1
102
RTVSPost2010Prop44ColorIndex
 90
        5
102
RTVSPost2010Prop44ColorRGB
 90
      255
102
RTVSPost2010PropOp44
 70
     1
102
RTVSPost2010Prop45
280
     0
102
RTVSPost2010PropOp45
 70
     1
102
RTVSPost2010Prop46
 90
       50
102
RTVSPost2010PropOp46
 70
     1
102
RTVSPost2010Prop47
 90
       50
102
RTVSPost2010PropOp47
 70
     1
102
RTVSPost2010Prop48
 90
       50
102
RTVSPost2010PropOp48
 70
     1
102
RTVSPost2010Prop49
280
     0
102
RTVSPost2010PropOp49
 70
     1
102
RTVSPost2010Prop50
 90
       50
102
RTVSPost2010PropOp50
 70
     1
102
RTVSPost2010Prop51ColorIndex
 90
      256
102
RTVSPost2010Prop51ColorRGB
 90
-16777216
102
RTVSPost2010PropOp51
 70
     0
102
RTVSPost2010Prop52
140
1.0
102
RTVSPost2010PropOp52
 70
     0
102
RTVSPost2010Prop53
 90
        2
102
RTVSPost2010PropOp53
 70
     1
102
RTVSPost2010Prop54
  1
strokes_ogs.tif
102
RTVSPost2010PropOp54
 70
     1
102
RTVSPost2010Prop55
280
     0
102
RTVSPost2010PropOp55
 70
     1
102
RTVSPost2010Prop56
140
1.0
102
RTVSPost2010PropOp56
 70
     1
102
RTVSPost2010Prop57
140
1.0
102
RTVSPost2010PropOp57
 70
     1
102
RTVSPropertyOp0
 70
     0
102
RTVSPropertyOp1
 70
     0
102
RTVSPropertyOp2
 70
     0
102
RTVSPropertyOp3
 70
     0
102
RTVSPropertyOp4
 70
     0
102
RTVSPropertyOp5
 70
     0
102
RTVSPropertyOp6
 70
     0
102
RTVSPropertyOp7
 70
     0
102
RTVSPropertyOp8
 70
     0
102
RTVSPropertyOp9
 70
     0
102
RTVSPropertyOp10
 70
     0
102
RTVSPropertyOp11
 70
     0
102
RTVSPropertyOp12
 70
     0
102
RTVSPropertyOp13
 70
     0
102
RTVSPropertyOp14
 70
     2
102
RTVSPropertyOp15
 70
     0
102
RTVSPropertyOp16
 70
     0
102
RTVSPropertyOp17
 70
     0
102
RTVSPropertyOp18
 70
     0
102
RTVSPropertyOp19
 70
     0
102
RTVSPropertyOp20
 70
     0
102
RTVSPropertyOp21
 70
     0
102
RTVSPropertyOp22
 70
     0
102
RTVSPropertyOp23
 70
     0
102
RTVSPropertyOp24
 70
     0
102
RTVSPropertyOp25
 70
     0
102
RTVSPropertyOp26
 70
     0
102
RTVSPropertyOp27
 70
     0
102
RTVSPropertyOp28
 70
     1
102
RTVSPropertyOp29
 70
     1
102
RTVSPropertyOp30
 70
     1
102
RTVSPropertyOp31
 70
     1
102
RTVSPropertyOp32
 70
     1
102
RTVSPropertyOp33
 70
     1
102
RTVSPropertyOp34
 70
     1
102
RTVSPropertyOp35
 70
     1
102
RTVSPropertyOp36
 70
     1
102
RTVSPropertyOp37
 70
     1
102
RTVSPropertyOp38
 70
     1
102
RTVSPropertyOp39
 70
     1
102
RTVSPropertyOp40
 70
     1
102
RTVSPropertyOp41
 70
     1
102
RTVSPropertyOp42
 70
     1
102
RTVSPropertyOp43
 70
     1
102
RTVSPropertyOp44
 70
     1
102
RTVSPropertyOp45
 70
     1
102
RTVSPropertyOp46
 70
     1
102
RTVSPropertyOp47
 70
     1
102
RTVSPropertyOp48
 70
     1
102
RTVSPropertyOp49
 70
     1
102
RTVSPropertyOp50
 70
     1
102
RTVSPropertyOp51
 70
     0
102
RTVSPropertyOp52
 70
     0
102
RTVSPropertyOp53
 70
     1
102
RTVSPropertyOp54
 70
     1
102
RTVSPropertyOp55
 70
     1
102
RTVSPropertyOp56
 70
     1
102
RTVSPropertyOp57
 70
     1
102
RTVSPropertyOp58
 70
     1
102
RTVSPropertyOp59
 70
     1
102
RTVSPropertyOp60
 70
     1
102
RTVSPropertyOp61
 70
     1
102
RTVSPropertyOp62
 70
     1
  0
XRECORD
  5
C1C9
102
{ACAD_REACTORS
330
C1C8
102
}
330
C1C8
100
AcDbXrecord
280
     1
102
RTVSPost2010Prop28
280
     0
102
RTVSPost2010PropOp28
 70
     1
102
RTVSPost2010Prop29
280
     1
102
RTVSPost2010PropOp29
 70
     1
102
RTVSPost2010Prop30
280
     1
102
RTVSPost2010PropOp30
 70
     1
102
RTVSPost2010Prop31
280
     0
102
RTVSPost2010PropOp31
 70
     1
102
RTVSPost2010Prop32
280
     0
102
RTVSPost2010PropOp32
 70
     1
102
RTVSPost2010Prop33
280
     0
102
RTVSPost2010PropOp33
 70
     1
102
RTVSPost2010Prop34
280
     0
102
RTVSPost2010PropOp34
 70
     1
102
RTVSPost2010Prop35
280
     0
102
RTVSPost2010PropOp35
 70
     1
102
RTVSPost2010Prop36
280
     0
102
RTVSPost2010PropOp36
 70
     1
102
RTVSPost2010Prop37
 90
       50
102
RTVSPost2010PropOp37
 70
     1
102
RTVSPost2010Prop38
140
0.0
102
RTVSPost2010PropOp38
 70
     1
102
RTVSPost2010Prop39
140
1.0
102
RTVSPost2010PropOp39
 70
     1
102
RTVSPost2010Prop40
 90
        0
102
RTVSPost2010PropOp40
 70
     1
102
RTVSPost2010Prop41ColorIndex
 90
       18
102
RTVSPost2010Prop41ColorRGB
 90
        0
102
RTVSPost2010PropOp41
 70
     1
102
RTVSPost2010Prop42
 90
       50
102
RTVSPost2010PropOp42
 70
     1
102
RTVSPost2010Prop43
 90
        3
102
RTVSPost2010PropOp43
 70
     1
102
RTVSPost2010Prop44ColorIndex
 90
        5
102
RTVSPost2010Prop44ColorRGB
 90
      255
102
RTVSPost2010PropOp44
 70
     1
102
RTVSPost2010Prop45
280
     0
102
RTVSPost2010PropOp45
 70
     1
102
RTVSPost2010Prop46
 90
       50
102
RTVSPost2010PropOp46
 70
     1
102
RTVSPost2010Prop47
 90
       50
102
RTVSPost2010PropOp47
 70
     1
102
RTVSPost2010Prop48
 90
       50
102
RTVSPost2010PropOp48
 70
     1
102
RTVSPost2010Prop49
280
     0
102
RTVSPost2010PropOp49
 70
     1
102
RTVSPost2010Prop50
 90
       50
102
RTVSPost2010PropOp50
 70
     1
102
RTVSPost2010Prop51ColorIndex
 90
      256
102
RTVSPost2010Prop51ColorRGB
 90
-16777216
102
RTVSPost2010PropOp51
 70
     0
102
RTVSPost2010Prop52
140
1.0
102
RTVSPost2010PropOp52
 70
     0
102
RTVSPost2010Prop53
 90
        2
102
RTVSPost2010PropOp53
 70
     1
102
RTVSPost2010Prop54
  1
strokes_ogs.tif
102
RTVSPost2010PropOp54
 70
     1
102
RTVSPost2010Prop55
280
     0
102
RTVSPost2010PropOp55
 70
     1
102
RTVSPost2010Prop56
140
1.0
102
RTVSPost2010PropOp56
 70
     1
102
RTVSPost2010Prop57
140
1.0
102
RTVSPost2010PropOp57
 70
     1
102
RTVSPropertyOp0
 70
     1
102
RTVSPropertyOp1
 70
     1
102
RTVSPropertyOp2
 70
     1
102
RTVSPropertyOp3
 70
     1
102
RTVSPropertyOp4
 70
     1
102
RTVSPropertyOp5
 70
     1
102
RTVSPropertyOp6
 70
     1
102
RTVSPropertyOp7
 70
     1
102
RTVSPropertyOp8
 70
     1
102
RTVSPropertyOp9
 70
     1
102
RTVSPropertyOp10
 70
     1
102
RTVSPropertyOp11
 70
     1
102
RTVSPropertyOp12
 70
     1
102
RTVSPropertyOp13
 70
     1
102
RTVSPropertyOp14
 70
     1
102
RTVSPropertyOp15
 70
     1
102
RTVSPropertyOp16
 70
     1
102
RTVSPropertyOp17
 70
     1
102
RTVSPropertyOp18
 70
     1
102
RTVSPropertyOp19
 70
     1
102
RTVSPropertyOp20
 70
     1
102
RTVSPropertyOp21
 70
     1
102
RTVSPropertyOp22
 70
     1
102
RTVSPropertyOp23
 70
     1
102
RTVSPropertyOp24
 70
     1
102
RTVSPropertyOp25
 70
     1
102
RTVSPropertyOp26
 70
     1
102
RTVSPropertyOp27
 70
     1
102
RTVSPropertyOp28
 70
     1
102
RTVSPropertyOp29
 70
     1
102
RTVSPropertyOp30
 70
     1
102
RTVSPropertyOp31
 70
     1
102
RTVSPropertyOp32
 70
     1
102
RTVSPropertyOp33
 70
     1
102
RTVSPropertyOp34
 70
     1
102
RTVSPropertyOp35
 70
     1
102
RTVSPropertyOp36
 70
     1
102
RTVSPropertyOp37
 70
     1
102
RTVSPropertyOp38
 70
     1
102
RTVSPropertyOp39
 70
     1
102
RTVSPropertyOp40
 70
     1
102
RTVSPropertyOp41
 70
     1
102
RTVSPropertyOp42
 70
     1
102
RTVSPropertyOp43
 70
     1
102
RTVSPropertyOp44
 70
     1
102
RTVSPropertyOp45
 70
     1
102
RTVSPropertyOp46
 70
     1
102
RTVSPropertyOp47
 70
     1
102
RTVSPropertyOp48
 70
     1
102
RTVSPropertyOp49
 70
     1
102
RTVSPropertyOp50
 70
     1
102
RTVSPropertyOp51
 70
     0
102
RTVSPropertyOp52
 70
     0
102
RTVSPropertyOp53
 70
     1
102
RTVSPropertyOp54
 70
     1
102
RTVSPropertyOp55
 70
     1
102
RTVSPropertyOp56
 70
     1
102
RTVSPropertyOp57
 70
     1
102
RTVSPropertyOp58
 70
     1
102
RTVSPropertyOp59
 70
     1
102
RTVSPropertyOp60
 70
     1
102
RTVSPropertyOp61
 70
     1
102
RTVSPropertyOp62
 70
     1
  0
XRECORD
  5
C1AD
102
{ACAD_REACTORS
330
C1AC
102
}
330
C1AC
100
AcDbXrecord
280
     1
102
RTVSPost2010Prop28
280
     0
102
RTVSPost2010PropOp28
 70
     1
102
RTVSPost2010Prop29
280
     1
102
RTVSPost2010PropOp29
 70
     1
102
RTVSPost2010Prop30
280
     1
102
RTVSPost2010PropOp30
 70
     1
102
RTVSPost2010Prop31
280
     0
102
RTVSPost2010PropOp31
 70
     1
102
RTVSPost2010Prop32
280
     0
102
RTVSPost2010PropOp32
 70
     1
102
RTVSPost2010Prop33
280
     0
102
RTVSPost2010PropOp33
 70
     1
102
RTVSPost2010Prop34
280
     0
102
RTVSPost2010PropOp34
 70
     1
102
RTVSPost2010Prop35
280
     0
102
RTVSPost2010PropOp35
 70
     1
102
RTVSPost2010Prop36
280
     0
102
RTVSPost2010PropOp36
 70
     1
102
RTVSPost2010Prop37
 90
       50
102
RTVSPost2010PropOp37
 70
     1
102
RTVSPost2010Prop38
140
0.0
102
RTVSPost2010PropOp38
 70
     1
102
RTVSPost2010Prop39
140
1.0
102
RTVSPost2010PropOp39
 70
     1
102
RTVSPost2010Prop40
 90
        0
102
RTVSPost2010PropOp40
 70
     1
102
RTVSPost2010Prop41ColorIndex
 90
       18
102
RTVSPost2010Prop41ColorRGB
 90
        0
102
RTVSPost2010PropOp41
 70
     1
102
RTVSPost2010Prop42
 90
       50
102
RTVSPost2010PropOp42
 70
     1
102
RTVSPost2010Prop43
 90
        3
102
RTVSPost2010PropOp43
 70
     1
102
RTVSPost2010Prop44ColorIndex
 90
        5
102
RTVSPost2010Prop44ColorRGB
 90
      255
102
RTVSPost2010PropOp44
 70
     1
102
RTVSPost2010Prop45
280
     0
102
RTVSPost2010PropOp45
 70
     1
102
RTVSPost2010Prop46
 90
       50
102
RTVSPost2010PropOp46
 70
     1
102
RTVSPost2010Prop47
 90
       50
102
RTVSPost2010PropOp47
 70
     1
102
RTVSPost2010Prop48
 90
       50
102
RTVSPost2010PropOp48
 70
     1
102
RTVSPost2010Prop49
280
     0
102
RTVSPost2010PropOp49
 70
     1
102
RTVSPost2010Prop50
 90
       50
102
RTVSPost2010PropOp50
 70
     1
102
RTVSPost2010Prop51ColorIndex
 90
      256
102
RTVSPost2010Prop51ColorRGB
 90
-16777216
102
RTVSPost2010PropOp51
 70
     0
102
RTVSPost2010Prop52
140
1.0
102
RTVSPost2010PropOp52
 70
     0
102
RTVSPost2010Prop53
 90
        2
102
RTVSPost2010PropOp53
 70
     1
102
RTVSPost2010Prop54
  1
strokes_ogs.tif
102
RTVSPost2010PropOp54
 70
     1
102
RTVSPost2010Prop55
280
     0
102
RTVSPost2010PropOp55
 70
     1
102
RTVSPost2010Prop56
140
1.0
102
RTVSPost2010PropOp56
 70
     1
102
RTVSPost2010Prop57
140
1.0
102
RTVSPost2010PropOp57
 70
     1
102
RTVSPropertyOp0
 70
     1
102
RTVSPropertyOp1
 70
     1
102
RTVSPropertyOp2
 70
     1
102
RTVSPropertyOp3
 70
     1
102
RTVSPropertyOp4
 70
     1
102
RTVSPropertyOp5
 70
     1
102
RTVSPropertyOp6
 70
     1
102
RTVSPropertyOp7
 70
     1
102
RTVSPropertyOp8
 70
     1
102
RTVSPropertyOp9
 70
     1
102
RTVSPropertyOp10
 70
     1
102
RTVSPropertyOp11
 70
     1
102
RTVSPropertyOp12
 70
     1
102
RTVSPropertyOp13
 70
     1
102
RTVSPropertyOp14
 70
     1
102
RTVSPropertyOp15
 70
     1
102
RTVSPropertyOp16
 70
     1
102
RTVSPropertyOp17
 70
     1
102
RTVSPropertyOp18
 70
     1
102
RTVSPropertyOp19
 70
     1
102
RTVSPropertyOp20
 70
     1
102
RTVSPropertyOp21
 70
     1
102
RTVSPropertyOp22
 70
     1
102
RTVSPropertyOp23
 70
     1
102
RTVSPropertyOp24
 70
     1
102
RTVSPropertyOp25
 70
     1
102
RTVSPropertyOp26
 70
     1
102
RTVSPropertyOp27
 70
     1
102
RTVSPropertyOp28
 70
     1
102
RTVSPropertyOp29
 70
     1
102
RTVSPropertyOp30
 70
     1
102
RTVSPropertyOp31
 70
     1
102
RTVSPropertyOp32
 70
     1
102
RTVSPropertyOp33
 70
     1
102
RTVSPropertyOp34
 70
     1
102
RTVSPropertyOp35
 70
     1
102
RTVSPropertyOp36
 70
     1
102
RTVSPropertyOp37
 70
     1
102
RTVSPropertyOp38
 70
     1
102
RTVSPropertyOp39
 70
     1
102
RTVSPropertyOp40
 70
     1
102
RTVSPropertyOp41
 70
     1
102
RTVSPropertyOp42
 70
     1
102
RTVSPropertyOp43
 70
     1
102
RTVSPropertyOp44
 70
     1
102
RTVSPropertyOp45
 70
     1
102
RTVSPropertyOp46
 70
     1
102
RTVSPropertyOp47
 70
     1
102
RTVSPropertyOp48
 70
     1
102
RTVSPropertyOp49
 70
     1
102
RTVSPropertyOp50
 70
     1
102
RTVSPropertyOp51
 70
     0
102
RTVSPropertyOp52
 70
     0
102
RTVSPropertyOp53
 70
     1
102
RTVSPropertyOp54
 70
     1
102
RTVSPropertyOp55
 70
     1
102
RTVSPropertyOp56
 70
     1
102
RTVSPropertyOp57
 70
     1
102
RTVSPropertyOp58
 70
     1
102
RTVSPropertyOp59
 70
     1
102
RTVSPropertyOp60
 70
     1
102
RTVSPropertyOp61
 70
     1
102
RTVSPropertyOp62
 70
     1
  0
XRECORD
  5
C1AF
102
{ACAD_REACTORS
330
C1AE
102
}
330
C1AE
100
AcDbXrecord
280
     1
102
RTVSPost2010Prop28
280
     0
102
RTVSPost2010PropOp28
 70
     1
102
RTVSPost2010Prop29
280
     1
102
RTVSPost2010PropOp29
 70
     1
102
RTVSPost2010Prop30
280
     1
102
RTVSPost2010PropOp30
 70
     1
102
RTVSPost2010Prop31
280
     0
102
RTVSPost2010PropOp31
 70
     1
102
RTVSPost2010Prop32
280
     0
102
RTVSPost2010PropOp32
 70
     1
102
RTVSPost2010Prop33
280
     0
102
RTVSPost2010PropOp33
 70
     1
102
RTVSPost2010Prop34
280
     0
102
RTVSPost2010PropOp34
 70
     1
102
RTVSPost2010Prop35
280
     0
102
RTVSPost2010PropOp35
 70
     1
102
RTVSPost2010Prop36
280
     0
102
RTVSPost2010PropOp36
 70
     1
102
RTVSPost2010Prop37
 90
       50
102
RTVSPost2010PropOp37
 70
     1
102
RTVSPost2010Prop38
140
0.0
102
RTVSPost2010PropOp38
 70
     1
102
RTVSPost2010Prop39
140
1.0
102
RTVSPost2010PropOp39
 70
     1
102
RTVSPost2010Prop40
 90
        0
102
RTVSPost2010PropOp40
 70
     1
102
RTVSPost2010Prop41ColorIndex
 90
       18
102
RTVSPost2010Prop41ColorRGB
 90
        0
102
RTVSPost2010PropOp41
 70
     1
102
RTVSPost2010Prop42
 90
       50
102
RTVSPost2010PropOp42
 70
     1
102
RTVSPost2010Prop43
 90
        3
102
RTVSPost2010PropOp43
 70
     1
102
RTVSPost2010Prop44ColorIndex
 90
        5
102
RTVSPost2010Prop44ColorRGB
 90
      255
102
RTVSPost2010PropOp44
 70
     1
102
RTVSPost2010Prop45
280
     0
102
RTVSPost2010PropOp45
 70
     1
102
RTVSPost2010Prop46
 90
       50
102
RTVSPost2010PropOp46
 70
     1
102
RTVSPost2010Prop47
 90
       50
102
RTVSPost2010PropOp47
 70
     1
102
RTVSPost2010Prop48
 90
       50
102
RTVSPost2010PropOp48
 70
     1
102
RTVSPost2010Prop49
280
     0
102
RTVSPost2010PropOp49
 70
     1
102
RTVSPost2010Prop50
 90
       50
102
RTVSPost2010PropOp50
 70
     1
102
RTVSPost2010Prop51ColorIndex
 90
      256
102
RTVSPost2010Prop51ColorRGB
 90
-16777216
102
RTVSPost2010PropOp51
 70
     0
102
RTVSPost2010Prop52
140
1.0
102
RTVSPost2010PropOp52
 70
     0
102
RTVSPost2010Prop53
 90
        2
102
RTVSPost2010PropOp53
 70
     1
102
RTVSPost2010Prop54
  1
strokes_ogs.tif
102
RTVSPost2010PropOp54
 70
     1
102
RTVSPost2010Prop55
280
     0
102
RTVSPost2010PropOp55
 70
     1
102
RTVSPost2010Prop56
140
1.0
102
RTVSPost2010PropOp56
 70
     1
102
RTVSPost2010Prop57
140
1.0
102
RTVSPost2010PropOp57
 70
     1
102
RTVSPropertyOp0
 70
     1
102
RTVSPropertyOp1
 70
     1
102
RTVSPropertyOp2
 70
     1
102
RTVSPropertyOp3
 70
     1
102
RTVSPropertyOp4
 70
     1
102
RTVSPropertyOp5
 70
     1
102
RTVSPropertyOp6
 70
     1
102
RTVSPropertyOp7
 70
     1
102
RTVSPropertyOp8
 70
     1
102
RTVSPropertyOp9
 70
     1
102
RTVSPropertyOp10
 70
     1
102
RTVSPropertyOp11
 70
     1
102
RTVSPropertyOp12
 70
     1
102
RTVSPropertyOp13
 70
     1
102
RTVSPropertyOp14
 70
     1
102
RTVSPropertyOp15
 70
     1
102
RTVSPropertyOp16
 70
     1
102
RTVSPropertyOp17
 70
     1
102
RTVSPropertyOp18
 70
     1
102
RTVSPropertyOp19
 70
     1
102
RTVSPropertyOp20
 70
     1
102
RTVSPropertyOp21
 70
     1
102
RTVSPropertyOp22
 70
     1
102
RTVSPropertyOp23
 70
     1
102
RTVSPropertyOp24
 70
     1
102
RTVSPropertyOp25
 70
     1
102
RTVSPropertyOp26
 70
     1
102
RTVSPropertyOp27
 70
     1
102
RTVSPropertyOp28
 70
     1
102
RTVSPropertyOp29
 70
     1
102
RTVSPropertyOp30
 70
     1
102
RTVSPropertyOp31
 70
     1
102
RTVSPropertyOp32
 70
     1
102
RTVSPropertyOp33
 70
     1
102
RTVSPropertyOp34
 70
     1
102
RTVSPropertyOp35
 70
     1
102
RTVSPropertyOp36
 70
     1
102
RTVSPropertyOp37
 70
     1
102
RTVSPropertyOp38
 70
     1
102
RTVSPropertyOp39
 70
     1
102
RTVSPropertyOp40
 70
     1
102
RTVSPropertyOp41
 70
     1
102
RTVSPropertyOp42
 70
     1
102
RTVSPropertyOp43
 70
     1
102
RTVSPropertyOp44
 70
     1
102
RTVSPropertyOp45
 70
     1
102
RTVSPropertyOp46
 70
     1
102
RTVSPropertyOp47
 70
     1
102
RTVSPropertyOp48
 70
     1
102
RTVSPropertyOp49
 70
     1
102
RTVSPropertyOp50
 70
     1
102
RTVSPropertyOp51
 70
     0
102
RTVSPropertyOp52
 70
     0
102
RTVSPropertyOp53
 70
     1
102
RTVSPropertyOp54
 70
     1
102
RTVSPropertyOp55
 70
     1
102
RTVSPropertyOp56
 70
     1
102
RTVSPropertyOp57
 70
     1
102
RTVSPropertyOp58
 70
     1
102
RTVSPropertyOp59
 70
     1
102
RTVSPropertyOp60
 70
     1
102
RTVSPropertyOp61
 70
     1
102
RTVSPropertyOp62
 70
     1
  0
XRECORD
  5
C1B1
102
{ACAD_REACTORS
330
C1B0
102
}
330
C1B0
100
AcDbXrecord
280
     1
102
RTVSPost2010Prop28
280
     0
102
RTVSPost2010PropOp28
 70
     1
102
RTVSPost2010Prop29
280
     1
102
RTVSPost2010PropOp29
 70
     1
102
RTVSPost2010Prop30
280
     1
102
RTVSPost2010PropOp30
 70
     1
102
RTVSPost2010Prop31
280
     0
102
RTVSPost2010PropOp31
 70
     1
102
RTVSPost2010Prop32
280
     0
102
RTVSPost2010PropOp32
 70
     1
102
RTVSPost2010Prop33
280
     0
102
RTVSPost2010PropOp33
 70
     1
102
RTVSPost2010Prop34
280
     0
102
RTVSPost2010PropOp34
 70
     1
102
RTVSPost2010Prop35
280
     0
102
RTVSPost2010PropOp35
 70
     1
102
RTVSPost2010Prop36
280
     0
102
RTVSPost2010PropOp36
 70
     1
102
RTVSPost2010Prop37
 90
       50
102
RTVSPost2010PropOp37
 70
     1
102
RTVSPost2010Prop38
140
0.0
102
RTVSPost2010PropOp38
 70
     1
102
RTVSPost2010Prop39
140
1.0
102
RTVSPost2010PropOp39
 70
     1
102
RTVSPost2010Prop40
 90
        0
102
RTVSPost2010PropOp40
 70
     1
102
RTVSPost2010Prop41ColorIndex
 90
       18
102
RTVSPost2010Prop41ColorRGB
 90
        0
102
RTVSPost2010PropOp41
 70
     1
102
RTVSPost2010Prop42
 90
       50
102
RTVSPost2010PropOp42
 70
     1
102
RTVSPost2010Prop43
 90
        3
102
RTVSPost2010PropOp43
 70
     1
102
RTVSPost2010Prop44ColorIndex
 90
        5
102
RTVSPost2010Prop44ColorRGB
 90
      255
102
RTVSPost2010PropOp44
 70
     1
102
RTVSPost2010Prop45
280
     0
102
RTVSPost2010PropOp45
 70
     1
102
RTVSPost2010Prop46
 90
       50
102
RTVSPost2010PropOp46
 70
     1
102
RTVSPost2010Prop47
 90
       50
102
RTVSPost2010PropOp47
 70
     1
102
RTVSPost2010Prop48
 90
       50
102
RTVSPost2010PropOp48
 70
     1
102
RTVSPost2010Prop49
280
     0
102
RTVSPost2010PropOp49
 70
     1
102
RTVSPost2010Prop50
 90
       50
102
RTVSPost2010PropOp50
 70
     1
102
RTVSPost2010Prop51ColorIndex
 90
      256
102
RTVSPost2010Prop51ColorRGB
 90
-16777216
102
RTVSPost2010PropOp51
 70
     0
102
RTVSPost2010Prop52
140
1.0
102
RTVSPost2010PropOp52
 70
     0
102
RTVSPost2010Prop53
 90
        2
102
RTVSPost2010PropOp53
 70
     1
102
RTVSPost2010Prop54
  1
strokes_ogs.tif
102
RTVSPost2010PropOp54
 70
     1
102
RTVSPost2010Prop55
280
     0
102
RTVSPost2010PropOp55
 70
     1
102
RTVSPost2010Prop56
140
1.0
102
RTVSPost2010PropOp56
 70
     1
102
RTVSPost2010Prop57
140
1.0
102
RTVSPost2010PropOp57
 70
     1
102
RTVSPropertyOp0
 70
     1
102
RTVSPropertyOp1
 70
     1
102
RTVSPropertyOp2
 70
     1
102
RTVSPropertyOp3
 70
     1
102
RTVSPropertyOp4
 70
     1
102
RTVSPropertyOp5
 70
     1
102
RTVSPropertyOp6
 70
     1
102
RTVSPropertyOp7
 70
     1
102
RTVSPropertyOp8
 70
     1
102
RTVSPropertyOp9
 70
     1
102
RTVSPropertyOp10
 70
     1
102
RTVSPropertyOp11
 70
     1
102
RTVSPropertyOp12
 70
     1
102
RTVSPropertyOp13
 70
     1
102
RTVSPropertyOp14
 70
     1
102
RTVSPropertyOp15
 70
     1
102
RTVSPropertyOp16
 70
     1
102
RTVSPropertyOp17
 70
     1
102
RTVSPropertyOp18
 70
     1
102
RTVSPropertyOp19
 70
     1
102
RTVSPropertyOp20
 70
     1
102
RTVSPropertyOp21
 70
     1
102
RTVSPropertyOp22
 70
     1
102
RTVSPropertyOp23
 70
     1
102
RTVSPropertyOp24
 70
     1
102
RTVSPropertyOp25
 70
     1
102
RTVSPropertyOp26
 70
     1
102
RTVSPropertyOp27
 70
     1
102
RTVSPropertyOp28
 70
     1
102
RTVSPropertyOp29
 70
     1
102
RTVSPropertyOp30
 70
     1
102
RTVSPropertyOp31
 70
     1
102
RTVSPropertyOp32
 70
     1
102
RTVSPropertyOp33
 70
     1
102
RTVSPropertyOp34
 70
     1
102
RTVSPropertyOp35
 70
     1
102
RTVSPropertyOp36
 70
     1
102
RTVSPropertyOp37
 70
     1
102
RTVSPropertyOp38
 70
     1
102
RTVSPropertyOp39
 70
     1
102
RTVSPropertyOp40
 70
     1
102
RTVSPropertyOp41
 70
     1
102
RTVSPropertyOp42
 70
     1
102
RTVSPropertyOp43
 70
     1
102
RTVSPropertyOp44
 70
     1
102
RTVSPropertyOp45
 70
     1
102
RTVSPropertyOp46
 70
     1
102
RTVSPropertyOp47
 70
     1
102
RTVSPropertyOp48
 70
     1
102
RTVSPropertyOp49
 70
     1
102
RTVSPropertyOp50
 70
     1
102
RTVSPropertyOp51
 70
     0
102
RTVSPropertyOp52
 70
     0
102
RTVSPropertyOp53
 70
     1
102
RTVSPropertyOp54
 70
     1
102
RTVSPropertyOp55
 70
     1
102
RTVSPropertyOp56
 70
     1
102
RTVSPropertyOp57
 70
     1
102
RTVSPropertyOp58
 70
     1
102
RTVSPropertyOp59
 70
     1
102
RTVSPropertyOp60
 70
     1
102
RTVSPropertyOp61
 70
     1
102
RTVSPropertyOp62
 70
     1
  0
XRECORD
  5
C1B3
102
{ACAD_REACTORS
330
C1B2
102
}
330
C1B2
100
AcDbXrecord
280
     1
102
RTVSPost2010Prop28
280
     0
102
RTVSPost2010PropOp28
 70
     1
102
RTVSPost2010Prop29
280
     1
102
RTVSPost2010PropOp29
 70
     1
102
RTVSPost2010Prop30
280
     1
102
RTVSPost2010PropOp30
 70
     1
102
RTVSPost2010Prop31
280
     0
102
RTVSPost2010PropOp31
 70
     1
102
RTVSPost2010Prop32
280
     0
102
RTVSPost2010PropOp32
 70
     1
102
RTVSPost2010Prop33
280
     0
102
RTVSPost2010PropOp33
 70
     1
102
RTVSPost2010Prop34
280
     0
102
RTVSPost2010PropOp34
 70
     1
102
RTVSPost2010Prop35
280
     0
102
RTVSPost2010PropOp35
 70
     1
102
RTVSPost2010Prop36
280
     0
102
RTVSPost2010PropOp36
 70
     1
102
RTVSPost2010Prop37
 90
       50
102
RTVSPost2010PropOp37
 70
     1
102
RTVSPost2010Prop38
140
0.0
102
RTVSPost2010PropOp38
 70
     1
102
RTVSPost2010Prop39
140
1.0
102
RTVSPost2010PropOp39
 70
     1
102
RTVSPost2010Prop40
 90
        0
102
RTVSPost2010PropOp40
 70
     1
102
RTVSPost2010Prop41ColorIndex
 90
       18
102
RTVSPost2010Prop41ColorRGB
 90
        0
102
RTVSPost2010PropOp41
 70
     1
102
RTVSPost2010Prop42
 90
       50
102
RTVSPost2010PropOp42
 70
     1
102
RTVSPost2010Prop43
 90
        3
102
RTVSPost2010PropOp43
 70
     1
102
RTVSPost2010Prop44ColorIndex
 90
        5
102
RTVSPost2010Prop44ColorRGB
 90
      255
102
RTVSPost2010PropOp44
 70
     1
102
RTVSPost2010Prop45
280
     0
102
RTVSPost2010PropOp45
 70
     1
102
RTVSPost2010Prop46
 90
       50
102
RTVSPost2010PropOp46
 70
     1
102
RTVSPost2010Prop47
 90
       50
102
RTVSPost2010PropOp47
 70
     1
102
RTVSPost2010Prop48
 90
       50
102
RTVSPost2010PropOp48
 70
     1
102
RTVSPost2010Prop49
280
     0
102
RTVSPost2010PropOp49
 70
     1
102
RTVSPost2010Prop50
 90
       50
102
RTVSPost2010PropOp50
 70
     1
102
RTVSPost2010Prop51ColorIndex
 90
      256
102
RTVSPost2010Prop51ColorRGB
 90
-16777216
102
RTVSPost2010PropOp51
 70
     0
102
RTVSPost2010Prop52
140
1.0
102
RTVSPost2010PropOp52
 70
     0
102
RTVSPost2010Prop53
 90
        2
102
RTVSPost2010PropOp53
 70
     1
102
RTVSPost2010Prop54
  1
strokes_ogs.tif
102
RTVSPost2010PropOp54
 70
     1
102
RTVSPost2010Prop55
280
     0
102
RTVSPost2010PropOp55
 70
     1
102
RTVSPost2010Prop56
140
1.0
102
RTVSPost2010PropOp56
 70
     1
102
RTVSPost2010Prop57
140
1.0
102
RTVSPost2010PropOp57
 70
     1
102
RTVSPropertyOp0
 70
     1
102
RTVSPropertyOp1
 70
     1
102
RTVSPropertyOp2
 70
     1
102
RTVSPropertyOp3
 70
     1
102
RTVSPropertyOp4
 70
     1
102
RTVSPropertyOp5
 70
     1
102
RTVSPropertyOp6
 70
     1
102
RTVSPropertyOp7
 70
     1
102
RTVSPropertyOp8
 70
     1
102
RTVSPropertyOp9
 70
     1
102
RTVSPropertyOp10
 70
     1
102
RTVSPropertyOp11
 70
     1
102
RTVSPropertyOp12
 70
     1
102
RTVSPropertyOp13
 70
     1
102
RTVSPropertyOp14
 70
     1
102
RTVSPropertyOp15
 70
     1
102
RTVSPropertyOp16
 70
     1
102
RTVSPropertyOp17
 70
     1
102
RTVSPropertyOp18
 70
     1
102
RTVSPropertyOp19
 70
     1
102
RTVSPropertyOp20
 70
     1
102
RTVSPropertyOp21
 70
     1
102
RTVSPropertyOp22
 70
     1
102
RTVSPropertyOp23
 70
     1
102
RTVSPropertyOp24
 70
     1
102
RTVSPropertyOp25
 70
     1
102
RTVSPropertyOp26
 70
     1
102
RTVSPropertyOp27
 70
     1
102
RTVSPropertyOp28
 70
     1
102
RTVSPropertyOp29
 70
     1
102
RTVSPropertyOp30
 70
     1
102
RTVSPropertyOp31
 70
     1
102
RTVSPropertyOp32
 70
     1
102
RTVSPropertyOp33
 70
     1
102
RTVSPropertyOp34
 70
     1
102
RTVSPropertyOp35
 70
     1
102
RTVSPropertyOp36
 70
     1
102
RTVSPropertyOp37
 70
     1
102
RTVSPropertyOp38
 70
     1
102
RTVSPropertyOp39
 70
     1
102
RTVSPropertyOp40
 70
     1
102
RTVSPropertyOp41
 70
     1
102
RTVSPropertyOp42
 70
     1
102
RTVSPropertyOp43
 70
     1
102
RTVSPropertyOp44
 70
     1
102
RTVSPropertyOp45
 70
     1
102
RTVSPropertyOp46
 70
     1
102
RTVSPropertyOp47
 70
     1
102
RTVSPropertyOp48
 70
     1
102
RTVSPropertyOp49
 70
     1
102
RTVSPropertyOp50
 70
     1
102
RTVSPropertyOp51
 70
     0
102
RTVSPropertyOp52
 70
     0
102
RTVSPropertyOp53
 70
     1
102
RTVSPropertyOp54
 70
     1
102
RTVSPropertyOp55
 70
     1
102
RTVSPropertyOp56
 70
     1
102
RTVSPropertyOp57
 70
     1
102
RTVSPropertyOp58
 70
     1
102
RTVSPropertyOp59
 70
     1
102
RTVSPropertyOp60
 70
     1
102
RTVSPropertyOp61
 70
     1
102
RTVSPropertyOp62
 70
     1
  0
XRECORD
  5
C1BB
102
{ACAD_REACTORS
330
C1BA
102
}
330
C1BA
100
AcDbXrecord
280
     1
102
RTVSPost2010Prop28
280
     0
102
RTVSPost2010PropOp28
 70
     1
102
RTVSPost2010Prop29
280
     1
102
RTVSPost2010PropOp29
 70
     1
102
RTVSPost2010Prop30
280
     1
102
RTVSPost2010PropOp30
 70
     1
102
RTVSPost2010Prop31
280
     0
102
RTVSPost2010PropOp31
 70
     1
102
RTVSPost2010Prop32
280
     0
102
RTVSPost2010PropOp32
 70
     1
102
RTVSPost2010Prop33
280
     0
102
RTVSPost2010PropOp33
 70
     1
102
RTVSPost2010Prop34
280
     0
102
RTVSPost2010PropOp34
 70
     1
102
RTVSPost2010Prop35
280
     0
102
RTVSPost2010PropOp35
 70
     1
102
RTVSPost2010Prop36
280
     0
102
RTVSPost2010PropOp36
 70
     1
102
RTVSPost2010Prop37
 90
       50
102
RTVSPost2010PropOp37
 70
     1
102
RTVSPost2010Prop38
140
0.0
102
RTVSPost2010PropOp38
 70
     1
102
RTVSPost2010Prop39
140
1.0
102
RTVSPost2010PropOp39
 70
     1
102
RTVSPost2010Prop40
 90
        0
102
RTVSPost2010PropOp40
 70
     1
102
RTVSPost2010Prop41ColorIndex
 90
       18
102
RTVSPost2010Prop41ColorRGB
 90
        0
102
RTVSPost2010PropOp41
 70
     1
102
RTVSPost2010Prop42
 90
       50
102
RTVSPost2010PropOp42
 70
     1
102
RTVSPost2010Prop43
 90
        3
102
RTVSPost2010PropOp43
 70
     1
102
RTVSPost2010Prop44ColorIndex
 90
        5
102
RTVSPost2010Prop44ColorRGB
 90
      255
102
RTVSPost2010PropOp44
 70
     1
102
RTVSPost2010Prop45
280
     0
102
RTVSPost2010PropOp45
 70
     1
102
RTVSPost2010Prop46
 90
       50
102
RTVSPost2010PropOp46
 70
     1
102
RTVSPost2010Prop47
 90
       50
102
RTVSPost2010PropOp47
 70
     1
102
RTVSPost2010Prop48
 90
       50
102
RTVSPost2010PropOp48
 70
     1
102
RTVSPost2010Prop49
280
     0
102
RTVSPost2010PropOp49
 70
     1
102
RTVSPost2010Prop50
 90
       50
102
RTVSPost2010PropOp50
 70
     1
102
RTVSPost2010Prop51ColorIndex
 90
      256
102
RTVSPost2010Prop51ColorRGB
 90
-16777216
102
RTVSPost2010PropOp51
 70
     0
102
RTVSPost2010Prop52
140
1.0
102
RTVSPost2010PropOp52
 70
     0
102
RTVSPost2010Prop53
 90
        2
102
RTVSPost2010PropOp53
 70
     1
102
RTVSPost2010Prop54
  1
strokes_ogs.tif
102
RTVSPost2010PropOp54
 70
     1
102
RTVSPost2010Prop55
280
     0
102
RTVSPost2010PropOp55
 70
     1
102
RTVSPost2010Prop56
140
1.0
102
RTVSPost2010PropOp56
 70
     1
102
RTVSPost2010Prop57
140
1.0
102
RTVSPost2010PropOp57
 70
     1
102
RTVSPropertyOp0
 70
     1
102
RTVSPropertyOp1
 70
     1
102
RTVSPropertyOp2
 70
     1
102
RTVSPropertyOp3
 70
     1
102
RTVSPropertyOp4
 70
     1
102
RTVSPropertyOp5
 70
     1
102
RTVSPropertyOp6
 70
     1
102
RTVSPropertyOp7
 70
     1
102
RTVSPropertyOp8
 70
     1
102
RTVSPropertyOp9
 70
     1
102
RTVSPropertyOp10
 70
     1
102
RTVSPropertyOp11
 70
     1
102
RTVSPropertyOp12
 70
     1
102
RTVSPropertyOp13
 70
     1
102
RTVSPropertyOp14
 70
     1
102
RTVSPropertyOp15
 70
     1
102
RTVSPropertyOp16
 70
     1
102
RTVSPropertyOp17
 70
     1
102
RTVSPropertyOp18
 70
     1
102
RTVSPropertyOp19
 70
     1
102
RTVSPropertyOp20
 70
     1
102
RTVSPropertyOp21
 70
     1
102
RTVSPropertyOp22
 70
     1
102
RTVSPropertyOp23
 70
     1
102
RTVSPropertyOp24
 70
     1
102
RTVSPropertyOp25
 70
     1
102
RTVSPropertyOp26
 70
     1
102
RTVSPropertyOp27
 70
     1
102
RTVSPropertyOp28
 70
     1
102
RTVSPropertyOp29
 70
     1
102
RTVSPropertyOp30
 70
     1
102
RTVSPropertyOp31
 70
     1
102
RTVSPropertyOp32
 70
     1
102
RTVSPropertyOp33
 70
     1
102
RTVSPropertyOp34
 70
     1
102
RTVSPropertyOp35
 70
     1
102
RTVSPropertyOp36
 70
     1
102
RTVSPropertyOp37
 70
     1
102
RTVSPropertyOp38
 70
     1
102
RTVSPropertyOp39
 70
     1
102
RTVSPropertyOp40
 70
     1
102
RTVSPropertyOp41
 70
     1
102
RTVSPropertyOp42
 70
     1
102
RTVSPropertyOp43
 70
     1
102
RTVSPropertyOp44
 70
     1
102
RTVSPropertyOp45
 70
     1
102
RTVSPropertyOp46
 70
     1
102
RTVSPropertyOp47
 70
     1
102
RTVSPropertyOp48
 70
     1
102
RTVSPropertyOp49
 70
     1
102
RTVSPropertyOp50
 70
     1
102
RTVSPropertyOp51
 70
     0
102
RTVSPropertyOp52
 70
     0
102
RTVSPropertyOp53
 70
     1
102
RTVSPropertyOp54
 70
     1
102
RTVSPropertyOp55
 70
     1
102
RTVSPropertyOp56
 70
     1
102
RTVSPropertyOp57
 70
     1
102
RTVSPropertyOp58
 70
     1
102
RTVSPropertyOp59
 70
     1
102
RTVSPropertyOp60
 70
     1
102
RTVSPropertyOp61
 70
     1
102
RTVSPropertyOp62
 70
     1
  0
XRECORD
  5
C1CF
102
{ACAD_REACTORS
330
C1CE
102
}
330
C1CE
100
AcDbXrecord
280
     1
102
RTVSPost2010Prop28
280
     0
102
RTVSPost2010PropOp28
 70
     1
102
RTVSPost2010Prop29
280
     1
102
RTVSPost2010PropOp29
 70
     1
102
RTVSPost2010Prop30
280
     1
102
RTVSPost2010PropOp30
 70
     1
102
RTVSPost2010Prop31
280
     0
102
RTVSPost2010PropOp31
 70
     1
102
RTVSPost2010Prop32
280
     0
102
RTVSPost2010PropOp32
 70
     1
102
RTVSPost2010Prop33
280
     0
102
RTVSPost2010PropOp33
 70
     1
102
RTVSPost2010Prop34
280
     0
102
RTVSPost2010PropOp34
 70
     1
102
RTVSPost2010Prop35
280
     0
102
RTVSPost2010PropOp35
 70
     1
102
RTVSPost2010Prop36
280
     0
102
RTVSPost2010PropOp36
 70
     1
102
RTVSPost2010Prop37
 90
       50
102
RTVSPost2010PropOp37
 70
     1
102
RTVSPost2010Prop38
140
0.0
102
RTVSPost2010PropOp38
 70
     1
102
RTVSPost2010Prop39
140
1.0
102
RTVSPost2010PropOp39
 70
     1
102
RTVSPost2010Prop40
 90
        0
102
RTVSPost2010PropOp40
 70
     1
102
RTVSPost2010Prop41ColorIndex
 90
       18
102
RTVSPost2010Prop41ColorRGB
 90
        0
102
RTVSPost2010PropOp41
 70
     1
102
RTVSPost2010Prop42
 90
       50
102
RTVSPost2010PropOp42
 70
     1
102
RTVSPost2010Prop43
 90
        3
102
RTVSPost2010PropOp43
 70
     1
102
RTVSPost2010Prop44ColorIndex
 90
        5
102
RTVSPost2010Prop44ColorRGB
 90
      255
102
RTVSPost2010PropOp44
 70
     1
102
RTVSPost2010Prop45
280
     0
102
RTVSPost2010PropOp45
 70
     1
102
RTVSPost2010Prop46
 90
       50
102
RTVSPost2010PropOp46
 70
     1
102
RTVSPost2010Prop47
 90
       50
102
RTVSPost2010PropOp47
 70
     1
102
RTVSPost2010Prop48
 90
       50
102
RTVSPost2010PropOp48
 70
     1
102
RTVSPost2010Prop49
280
     0
102
RTVSPost2010PropOp49
 70
     1
102
RTVSPost2010Prop50
 90
       50
102
RTVSPost2010PropOp50
 70
     1
102
RTVSPost2010Prop51ColorIndex
 90
      256
102
RTVSPost2010Prop51ColorRGB
 90
-16777216
102
RTVSPost2010PropOp51
 70
     0
102
RTVSPost2010Prop52
140
1.0
102
RTVSPost2010PropOp52
 70
     0
102
RTVSPost2010Prop53
 90
        2
102
RTVSPost2010PropOp53
 70
     1
102
RTVSPost2010Prop54
  1
strokes_ogs.tif
102
RTVSPost2010PropOp54
 70
     1
102
RTVSPost2010Prop55
280
     0
102
RTVSPost2010PropOp55
 70
     1
102
RTVSPost2010Prop56
140
1.0
102
RTVSPost2010PropOp56
 70
     1
102
RTVSPost2010Prop57
140
1.0
102
RTVSPost2010PropOp57
 70
     1
102
RTVSPropertyOp0
 70
     0
102
RTVSPropertyOp1
 70
     0
102
RTVSPropertyOp2
 70
     0
102
RTVSPropertyOp3
 70
     0
102
RTVSPropertyOp4
 70
     0
102
RTVSPropertyOp5
 70
     0
102
RTVSPropertyOp6
 70
     0
102
RTVSPropertyOp7
 70
     0
102
RTVSPropertyOp8
 70
     0
102
RTVSPropertyOp9
 70
     0
102
RTVSPropertyOp10
 70
     0
102
RTVSPropertyOp11
 70
     0
102
RTVSPropertyOp12
 70
     0
102
RTVSPropertyOp13
 70
     0
102
RTVSPropertyOp14
 70
     2
102
RTVSPropertyOp15
 70
     0
102
RTVSPropertyOp16
 70
     0
102
RTVSPropertyOp17
 70
     0
102
RTVSPropertyOp18
 70
     0
102
RTVSPropertyOp19
 70
     0
102
RTVSPropertyOp20
 70
     0
102
RTVSPropertyOp21
 70
     0
102
RTVSPropertyOp22
 70
     0
102
RTVSPropertyOp23
 70
     0
102
RTVSPropertyOp24
 70
     0
102
RTVSPropertyOp25
 70
     0
102
RTVSPropertyOp26
 70
     0
102
RTVSPropertyOp27
 70
     0
102
RTVSPropertyOp28
 70
     1
102
RTVSPropertyOp29
 70
     1
102
RTVSPropertyOp30
 70
     1
102
RTVSPropertyOp31
 70
     1
102
RTVSPropertyOp32
 70
     1
102
RTVSPropertyOp33
 70
     1
102
RTVSPropertyOp34
 70
     1
102
RTVSPropertyOp35
 70
     1
102
RTVSPropertyOp36
 70
     1
102
RTVSPropertyOp37
 70
     1
102
RTVSPropertyOp38
 70
     1
102
RTVSPropertyOp39
 70
     1
102
RTVSPropertyOp40
 70
     1
102
RTVSPropertyOp41
 70
     1
102
RTVSPropertyOp42
 70
     1
102
RTVSPropertyOp43
 70
     1
102
RTVSPropertyOp44
 70
     1
102
RTVSPropertyOp45
 70
     1
102
RTVSPropertyOp46
 70
     1
102
RTVSPropertyOp47
 70
     1
102
RTVSPropertyOp48
 70
     1
102
RTVSPropertyOp49
 70
     1
102
RTVSPropertyOp50
 70
     1
102
RTVSPropertyOp51
 70
     0
102
RTVSPropertyOp52
 70
     0
102
RTVSPropertyOp53
 70
     1
102
RTVSPropertyOp54
 70
     1
102
RTVSPropertyOp55
 70
     1
102
RTVSPropertyOp56
 70
     1
102
RTVSPropertyOp57
 70
     1
102
RTVSPropertyOp58
 70
     1
102
RTVSPropertyOp59
 70
     1
102
RTVSPropertyOp60
 70
     1
102
RTVSPropertyOp61
 70
     1
102
RTVSPropertyOp62
 70
     1
  0
XRECORD
  5
C1C7
102
{ACAD_REACTORS
330
C1C6
102
}
330
C1C6
100
AcDbXrecord
280
     1
102
RTVSPost2010Prop28
280
     0
102
RTVSPost2010PropOp28
 70
     1
102
RTVSPost2010Prop29
280
     1
102
RTVSPost2010PropOp29
 70
     1
102
RTVSPost2010Prop30
280
     1
102
RTVSPost2010PropOp30
 70
     1
102
RTVSPost2010Prop31
280
     0
102
RTVSPost2010PropOp31
 70
     1
102
RTVSPost2010Prop32
280
     0
102
RTVSPost2010PropOp32
 70
     1
102
RTVSPost2010Prop33
280
     0
102
RTVSPost2010PropOp33
 70
     1
102
RTVSPost2010Prop34
280
     0
102
RTVSPost2010PropOp34
 70
     1
102
RTVSPost2010Prop35
280
     0
102
RTVSPost2010PropOp35
 70
     1
102
RTVSPost2010Prop36
280
     0
102
RTVSPost2010PropOp36
 70
     1
102
RTVSPost2010Prop37
 90
       50
102
RTVSPost2010PropOp37
 70
     1
102
RTVSPost2010Prop38
140
0.0
102
RTVSPost2010PropOp38
 70
     1
102
RTVSPost2010Prop39
140
1.0
102
RTVSPost2010PropOp39
 70
     1
102
RTVSPost2010Prop40
 90
        0
102
RTVSPost2010PropOp40
 70
     1
102
RTVSPost2010Prop41ColorIndex
 90
       18
102
RTVSPost2010Prop41ColorRGB
 90
        0
102
RTVSPost2010PropOp41
 70
     1
102
RTVSPost2010Prop42
 90
       50
102
RTVSPost2010PropOp42
 70
     1
102
RTVSPost2010Prop43
 90
        3
102
RTVSPost2010PropOp43
 70
     1
102
RTVSPost2010Prop44ColorIndex
 90
        5
102
RTVSPost2010Prop44ColorRGB
 90
      255
102
RTVSPost2010PropOp44
 70
     1
102
RTVSPost2010Prop45
280
     0
102
RTVSPost2010PropOp45
 70
     1
102
RTVSPost2010Prop46
 90
       50
102
RTVSPost2010PropOp46
 70
     1
102
RTVSPost2010Prop47
 90
       50
102
RTVSPost2010PropOp47
 70
     1
102
RTVSPost2010Prop48
 90
       50
102
RTVSPost2010PropOp48
 70
     1
102
RTVSPost2010Prop49
280
     0
102
RTVSPost2010PropOp49
 70
     1
102
RTVSPost2010Prop50
 90
       50
102
RTVSPost2010PropOp50
 70
     1
102
RTVSPost2010Prop51ColorIndex
 90
      256
102
RTVSPost2010Prop51ColorRGB
 90
-16777216
102
RTVSPost2010PropOp51
 70
     0
102
RTVSPost2010Prop52
140
1.0
102
RTVSPost2010PropOp52
 70
     0
102
RTVSPost2010Prop53
 90
        2
102
RTVSPost2010PropOp53
 70
     1
102
RTVSPost2010Prop54
  1
strokes_ogs.tif
102
RTVSPost2010PropOp54
 70
     1
102
RTVSPost2010Prop55
280
     0
102
RTVSPost2010PropOp55
 70
     1
102
RTVSPost2010Prop56
140
1.0
102
RTVSPost2010PropOp56
 70
     1
102
RTVSPost2010Prop57
140
1.0
102
RTVSPost2010PropOp57
 70
     1
102
RTVSPropertyOp0
 70
     1
102
RTVSPropertyOp1
 70
     1
102
RTVSPropertyOp2
 70
     1
102
RTVSPropertyOp3
 70
     1
102
RTVSPropertyOp4
 70
     1
102
RTVSPropertyOp5
 70
     1
102
RTVSPropertyOp6
 70
     1
102
RTVSPropertyOp7
 70
     1
102
RTVSPropertyOp8
 70
     1
102
RTVSPropertyOp9
 70
     1
102
RTVSPropertyOp10
 70
     1
102
RTVSPropertyOp11
 70
     1
102
RTVSPropertyOp12
 70
     1
102
RTVSPropertyOp13
 70
     1
102
RTVSPropertyOp14
 70
     1
102
RTVSPropertyOp15
 70
     1
102
RTVSPropertyOp16
 70
     1
102
RTVSPropertyOp17
 70
     1
102
RTVSPropertyOp18
 70
     1
102
RTVSPropertyOp19
 70
     1
102
RTVSPropertyOp20
 70
     1
102
RTVSPropertyOp21
 70
     1
102
RTVSPropertyOp22
 70
     1
102
RTVSPropertyOp23
 70
     1
102
RTVSPropertyOp24
 70
     1
102
RTVSPropertyOp25
 70
     1
102
RTVSPropertyOp26
 70
     1
102
RTVSPropertyOp27
 70
     1
102
RTVSPropertyOp28
 70
     1
102
RTVSPropertyOp29
 70
     1
102
RTVSPropertyOp30
 70
     1
102
RTVSPropertyOp31
 70
     1
102
RTVSPropertyOp32
 70
     1
102
RTVSPropertyOp33
 70
     1
102
RTVSPropertyOp34
 70
     1
102
RTVSPropertyOp35
 70
     1
102
RTVSPropertyOp36
 70
     1
102
RTVSPropertyOp37
 70
     1
102
RTVSPropertyOp38
 70
     1
102
RTVSPropertyOp39
 70
     1
102
RTVSPropertyOp40
 70
     1
102
RTVSPropertyOp41
 70
     1
102
RTVSPropertyOp42
 70
     1
102
RTVSPropertyOp43
 70
     1
102
RTVSPropertyOp44
 70
     1
102
RTVSPropertyOp45
 70
     1
102
RTVSPropertyOp46
 70
     1
102
RTVSPropertyOp47
 70
     1
102
RTVSPropertyOp48
 70
     1
102
RTVSPropertyOp49
 70
     1
102
RTVSPropertyOp50
 70
     1
102
RTVSPropertyOp51
 70
     0
102
RTVSPropertyOp52
 70
     0
102
RTVSPropertyOp53
 70
     1
102
RTVSPropertyOp54
 70
     1
102
RTVSPropertyOp55
 70
     1
102
RTVSPropertyOp56
 70
     1
102
RTVSPropertyOp57
 70
     1
102
RTVSPropertyOp58
 70
     1
102
RTVSPropertyOp59
 70
     1
102
RTVSPropertyOp60
 70
     1
102
RTVSPropertyOp61
 70
     1
102
RTVSPropertyOp62
 70
     1
  0
XRECORD
  5
C1D1
102
{ACAD_REACTORS
330
C1D0
102
}
330
C1D0
100
AcDbXrecord
280
     1
102
RTVSPost2010Prop28
280
     0
102
RTVSPost2010PropOp28
 70
     1
102
RTVSPost2010Prop29
280
     1
102
RTVSPost2010PropOp29
 70
     1
102
RTVSPost2010Prop30
280
     1
102
RTVSPost2010PropOp30
 70
     1
102
RTVSPost2010Prop31
280
     0
102
RTVSPost2010PropOp31
 70
     1
102
RTVSPost2010Prop32
280
     0
102
RTVSPost2010PropOp32
 70
     1
102
RTVSPost2010Prop33
280
     0
102
RTVSPost2010PropOp33
 70
     1
102
RTVSPost2010Prop34
280
     0
102
RTVSPost2010PropOp34
 70
     1
102
RTVSPost2010Prop35
280
     0
102
RTVSPost2010PropOp35
 70
     1
102
RTVSPost2010Prop36
280
     0
102
RTVSPost2010PropOp36
 70
     1
102
RTVSPost2010Prop37
 90
       50
102
RTVSPost2010PropOp37
 70
     1
102
RTVSPost2010Prop38
140
0.0
102
RTVSPost2010PropOp38
 70
     1
102
RTVSPost2010Prop39
140
1.0
102
RTVSPost2010PropOp39
 70
     1
102
RTVSPost2010Prop40
 90
        0
102
RTVSPost2010PropOp40
 70
     1
102
RTVSPost2010Prop41ColorIndex
 90
       18
102
RTVSPost2010Prop41ColorRGB
 90
        0
102
RTVSPost2010PropOp41
 70
     1
102
RTVSPost2010Prop42
 90
       50
102
RTVSPost2010PropOp42
 70
     1
102
RTVSPost2010Prop43
 90
        3
102
RTVSPost2010PropOp43
 70
     1
102
RTVSPost2010Prop44ColorIndex
 90
        5
102
RTVSPost2010Prop44ColorRGB
 90
      255
102
RTVSPost2010PropOp44
 70
     1
102
RTVSPost2010Prop45
280
     0
102
RTVSPost2010PropOp45
 70
     1
102
RTVSPost2010Prop46
 90
       50
102
RTVSPost2010PropOp46
 70
     1
102
RTVSPost2010Prop47
 90
       50
102
RTVSPost2010PropOp47
 70
     1
102
RTVSPost2010Prop48
 90
       50
102
RTVSPost2010PropOp48
 70
     1
102
RTVSPost2010Prop49
280
     0
102
RTVSPost2010PropOp49
 70
     1
102
RTVSPost2010Prop50
 90
       50
102
RTVSPost2010PropOp50
 70
     1
102
RTVSPost2010Prop51ColorIndex
 90
      256
102
RTVSPost2010Prop51ColorRGB
 90
-16777216
102
RTVSPost2010PropOp51
 70
     0
102
RTVSPost2010Prop52
140
1.0
102
RTVSPost2010PropOp52
 70
     0
102
RTVSPost2010Prop53
 90
        2
102
RTVSPost2010PropOp53
 70
     1
102
RTVSPost2010Prop54
  1
strokes_ogs.tif
102
RTVSPost2010PropOp54
 70
     1
102
RTVSPost2010Prop55
280
     0
102
RTVSPost2010PropOp55
 70
     1
102
RTVSPost2010Prop56
140
1.0
102
RTVSPost2010PropOp56
 70
     1
102
RTVSPost2010Prop57
140
1.0
102
RTVSPost2010PropOp57
 70
     1
102
RTVSPropertyOp0
 70
     0
102
RTVSPropertyOp1
 70
     0
102
RTVSPropertyOp2
 70
     0
102
RTVSPropertyOp3
 70
     0
102
RTVSPropertyOp4
 70
     0
102
RTVSPropertyOp5
 70
     0
102
RTVSPropertyOp6
 70
     0
102
RTVSPropertyOp7
 70
     0
102
RTVSPropertyOp8
 70
     0
102
RTVSPropertyOp9
 70
     0
102
RTVSPropertyOp10
 70
     0
102
RTVSPropertyOp11
 70
     0
102
RTVSPropertyOp12
 70
     0
102
RTVSPropertyOp13
 70
     0
102
RTVSPropertyOp14
 70
     2
102
RTVSPropertyOp15
 70
     0
102
RTVSPropertyOp16
 70
     0
102
RTVSPropertyOp17
 70
     0
102
RTVSPropertyOp18
 70
     0
102
RTVSPropertyOp19
 70
     0
102
RTVSPropertyOp20
 70
     0
102
RTVSPropertyOp21
 70
     0
102
RTVSPropertyOp22
 70
     0
102
RTVSPropertyOp23
 70
     0
102
RTVSPropertyOp24
 70
     0
102
RTVSPropertyOp25
 70
     0
102
RTVSPropertyOp26
 70
     0
102
RTVSPropertyOp27
 70
     0
102
RTVSPropertyOp28
 70
     1
102
RTVSPropertyOp29
 70
     1
102
RTVSPropertyOp30
 70
     1
102
RTVSPropertyOp31
 70
     1
102
RTVSPropertyOp32
 70
     1
102
RTVSPropertyOp33
 70
     1
102
RTVSPropertyOp34
 70
     1
102
RTVSPropertyOp35
 70
     1
102
RTVSPropertyOp36
 70
     1
102
RTVSPropertyOp37
 70
     1
102
RTVSPropertyOp38
 70
     1
102
RTVSPropertyOp39
 70
     1
102
RTVSPropertyOp40
 70
     1
102
RTVSPropertyOp41
 70
     1
102
RTVSPropertyOp42
 70
     1
102
RTVSPropertyOp43
 70
     1
102
RTVSPropertyOp44
 70
     1
102
RTVSPropertyOp45
 70
     1
102
RTVSPropertyOp46
 70
     1
102
RTVSPropertyOp47
 70
     1
102
RTVSPropertyOp48
 70
     1
102
RTVSPropertyOp49
 70
     1
102
RTVSPropertyOp50
 70
     1
102
RTVSPropertyOp51
 70
     0
102
RTVSPropertyOp52
 70
     0
102
RTVSPropertyOp53
 70
     1
102
RTVSPropertyOp54
 70
     1
102
RTVSPropertyOp55
 70
     1
102
RTVSPropertyOp56
 70
     1
102
RTVSPropertyOp57
 70
     1
102
RTVSPropertyOp58
 70
     1
102
RTVSPropertyOp59
 70
     1
102
RTVSPropertyOp60
 70
     1
102
RTVSPropertyOp61
 70
     1
102
RTVSPropertyOp62
 70
     1
  0
XRECORD
  5
C1BF
102
{ACAD_REACTORS
330
C1BE
102
}
330
C1BE
100
AcDbXrecord
280
     1
102
RTVSPost2010Prop28
280
     0
102
RTVSPost2010PropOp28
 70
     1
102
RTVSPost2010Prop29
280
     1
102
RTVSPost2010PropOp29
 70
     1
102
RTVSPost2010Prop30
280
     1
102
RTVSPost2010PropOp30
 70
     1
102
RTVSPost2010Prop31
280
     0
102
RTVSPost2010PropOp31
 70
     1
102
RTVSPost2010Prop32
280
     0
102
RTVSPost2010PropOp32
 70
     1
102
RTVSPost2010Prop33
280
     0
102
RTVSPost2010PropOp33
 70
     1
102
RTVSPost2010Prop34
280
     0
102
RTVSPost2010PropOp34
 70
     1
102
RTVSPost2010Prop35
280
     0
102
RTVSPost2010PropOp35
 70
     1
102
RTVSPost2010Prop36
280
     0
102
RTVSPost2010PropOp36
 70
     1
102
RTVSPost2010Prop37
 90
       50
102
RTVSPost2010PropOp37
 70
     1
102
RTVSPost2010Prop38
140
0.0
102
RTVSPost2010PropOp38
 70
     1
102
RTVSPost2010Prop39
140
1.0
102
RTVSPost2010PropOp39
 70
     1
102
RTVSPost2010Prop40
 90
        0
102
RTVSPost2010PropOp40
 70
     1
102
RTVSPost2010Prop41ColorIndex
 90
       18
102
RTVSPost2010Prop41ColorRGB
 90
        0
102
RTVSPost2010PropOp41
 70
     1
102
RTVSPost2010Prop42
 90
       50
102
RTVSPost2010PropOp42
 70
     1
102
RTVSPost2010Prop43
 90
        3
102
RTVSPost2010PropOp43
 70
     1
102
RTVSPost2010Prop44ColorIndex
 90
        5
102
RTVSPost2010Prop44ColorRGB
 90
      255
102
RTVSPost2010PropOp44
 70
     1
102
RTVSPost2010Prop45
280
     0
102
RTVSPost2010PropOp45
 70
     1
102
RTVSPost2010Prop46
 90
       50
102
RTVSPost2010PropOp46
 70
     1
102
RTVSPost2010Prop47
 90
       50
102
RTVSPost2010PropOp47
 70
     1
102
RTVSPost2010Prop48
 90
       50
102
RTVSPost2010PropOp48
 70
     1
102
RTVSPost2010Prop49
280
     0
102
RTVSPost2010PropOp49
 70
     1
102
RTVSPost2010Prop50
 90
       50
102
RTVSPost2010PropOp50
 70
     1
102
RTVSPost2010Prop51ColorIndex
 90
      256
102
RTVSPost2010Prop51ColorRGB
 90
-16777216
102
RTVSPost2010PropOp51
 70
     0
102
RTVSPost2010Prop52
140
1.0
102
RTVSPost2010PropOp52
 70
     0
102
RTVSPost2010Prop53
 90
        2
102
RTVSPost2010PropOp53
 70
     1
102
RTVSPost2010Prop54
  1
strokes_ogs.tif
102
RTVSPost2010PropOp54
 70
     1
102
RTVSPost2010Prop55
280
     0
102
RTVSPost2010PropOp55
 70
     1
102
RTVSPost2010Prop56
140
1.0
102
RTVSPost2010PropOp56
 70
     1
102
RTVSPost2010Prop57
140
1.0
102
RTVSPost2010PropOp57
 70
     1
102
RTVSPropertyOp0
 70
     1
102
RTVSPropertyOp1
 70
     1
102
RTVSPropertyOp2
 70
     1
102
RTVSPropertyOp3
 70
     1
102
RTVSPropertyOp4
 70
     1
102
RTVSPropertyOp5
 70
     1
102
RTVSPropertyOp6
 70
     1
102
RTVSPropertyOp7
 70
     1
102
RTVSPropertyOp8
 70
     1
102
RTVSPropertyOp9
 70
     1
102
RTVSPropertyOp10
 70
     1
102
RTVSPropertyOp11
 70
     1
102
RTVSPropertyOp12
 70
     1
102
RTVSPropertyOp13
 70
     1
102
RTVSPropertyOp14
 70
     1
102
RTVSPropertyOp15
 70
     1
102
RTVSPropertyOp16
 70
     1
102
RTVSPropertyOp17
 70
     1
102
RTVSPropertyOp18
 70
     1
102
RTVSPropertyOp19
 70
     1
102
RTVSPropertyOp20
 70
     1
102
RTVSPropertyOp21
 70
     1
102
RTVSPropertyOp22
 70
     1
102
RTVSPropertyOp23
 70
     1
102
RTVSPropertyOp24
 70
     1
102
RTVSPropertyOp25
 70
     1
102
RTVSPropertyOp26
 70
     1
102
RTVSPropertyOp27
 70
     1
102
RTVSPropertyOp28
 70
     1
102
RTVSPropertyOp29
 70
     1
102
RTVSPropertyOp30
 70
     1
102
RTVSPropertyOp31
 70
     1
102
RTVSPropertyOp32
 70
     1
102
RTVSPropertyOp33
 70
     1
102
RTVSPropertyOp34
 70
     1
102
RTVSPropertyOp35
 70
     1
102
RTVSPropertyOp36
 70
     1
102
RTVSPropertyOp37
 70
     1
102
RTVSPropertyOp38
 70
     1
102
RTVSPropertyOp39
 70
     1
102
RTVSPropertyOp40
 70
     1
102
RTVSPropertyOp41
 70
     1
102
RTVSPropertyOp42
 70
     1
102
RTVSPropertyOp43
 70
     1
102
RTVSPropertyOp44
 70
     1
102
RTVSPropertyOp45
 70
     1
102
RTVSPropertyOp46
 70
     1
102
RTVSPropertyOp47
 70
     1
102
RTVSPropertyOp48
 70
     1
102
RTVSPropertyOp49
 70
     1
102
RTVSPropertyOp50
 70
     1
102
RTVSPropertyOp51
 70
     0
102
RTVSPropertyOp52
 70
     0
102
RTVSPropertyOp53
 70
     1
102
RTVSPropertyOp54
 70
     1
102
RTVSPropertyOp55
 70
     1
102
RTVSPropertyOp56
 70
     1
102
RTVSPropertyOp57
 70
     1
102
RTVSPropertyOp58
 70
     1
102
RTVSPropertyOp59
 70
     1
102
RTVSPropertyOp60
 70
     1
102
RTVSPropertyOp61
 70
     1
102
RTVSPropertyOp62
 70
     1
  0
XRECORD
  5
C1DD
102
{ACAD_REACTORS
330
C1DC
102
}
330
C1DC
100
AcDbXrecord
280
     1
102
RTVSPost2010Prop28
280
     0
102
RTVSPost2010PropOp28
 70
     1
102
RTVSPost2010Prop29
280
     1
102
RTVSPost2010PropOp29
 70
     1
102
RTVSPost2010Prop30
280
     1
102
RTVSPost2010PropOp30
 70
     1
102
RTVSPost2010Prop31
280
     0
102
RTVSPost2010PropOp31
 70
     1
102
RTVSPost2010Prop32
280
     0
102
RTVSPost2010PropOp32
 70
     1
102
RTVSPost2010Prop33
280
     0
102
RTVSPost2010PropOp33
 70
     1
102
RTVSPost2010Prop34
280
     0
102
RTVSPost2010PropOp34
 70
     1
102
RTVSPost2010Prop35
280
     0
102
RTVSPost2010PropOp35
 70
     1
102
RTVSPost2010Prop36
280
     0
102
RTVSPost2010PropOp36
 70
     1
102
RTVSPost2010Prop37
 90
       50
102
RTVSPost2010PropOp37
 70
     1
102
RTVSPost2010Prop38
140
0.0
102
RTVSPost2010PropOp38
 70
     1
102
RTVSPost2010Prop39
140
1.0
102
RTVSPost2010PropOp39
 70
     1
102
RTVSPost2010Prop40
 90
        0
102
RTVSPost2010PropOp40
 70
     1
102
RTVSPost2010Prop41ColorIndex
 90
       18
102
RTVSPost2010Prop41ColorRGB
 90
        0
102
RTVSPost2010PropOp41
 70
     1
102
RTVSPost2010Prop42
 90
       50
102
RTVSPost2010PropOp42
 70
     1
102
RTVSPost2010Prop43
 90
        3
102
RTVSPost2010PropOp43
 70
     1
102
RTVSPost2010Prop44ColorIndex
 90
        5
102
RTVSPost2010Prop44ColorRGB
 90
      255
102
RTVSPost2010PropOp44
 70
     1
102
RTVSPost2010Prop45
280
     0
102
RTVSPost2010PropOp45
 70
     1
102
RTVSPost2010Prop46
 90
       50
102
RTVSPost2010PropOp46
 70
     1
102
RTVSPost2010Prop47
 90
       50
102
RTVSPost2010PropOp47
 70
     1
102
RTVSPost2010Prop48
 90
       50
102
RTVSPost2010PropOp48
 70
     1
102
RTVSPost2010Prop49
280
     0
102
RTVSPost2010PropOp49
 70
     1
102
RTVSPost2010Prop50
 90
       50
102
RTVSPost2010PropOp50
 70
     1
102
RTVSPost2010Prop51ColorIndex
 90
      256
102
RTVSPost2010Prop51ColorRGB
 90
-16777216
102
RTVSPost2010PropOp51
 70
     0
102
RTVSPost2010Prop52
140
1.0
102
RTVSPost2010PropOp52
 70
     0
102
RTVSPost2010Prop53
 90
        2
102
RTVSPost2010PropOp53
 70
     1
102
RTVSPost2010Prop54
  1
strokes_ogs.tif
102
RTVSPost2010PropOp54
 70
     1
102
RTVSPost2010Prop55
280
     0
102
RTVSPost2010PropOp55
 70
     1
102
RTVSPost2010Prop56
140
1.0
102
RTVSPost2010PropOp56
 70
     1
102
RTVSPost2010Prop57
140
1.0
102
RTVSPost2010PropOp57
 70
     1
102
RTVSPropertyOp0
 70
     1
102
RTVSPropertyOp1
 70
     1
102
RTVSPropertyOp2
 70
     1
102
RTVSPropertyOp3
 70
     1
102
RTVSPropertyOp4
 70
     1
102
RTVSPropertyOp5
 70
     1
102
RTVSPropertyOp6
 70
     1
102
RTVSPropertyOp7
 70
     1
102
RTVSPropertyOp8
 70
     1
102
RTVSPropertyOp9
 70
     1
102
RTVSPropertyOp10
 70
     1
102
RTVSPropertyOp11
 70
     1
102
RTVSPropertyOp12
 70
     1
102
RTVSPropertyOp13
 70
     1
102
RTVSPropertyOp14
 70
     1
102
RTVSPropertyOp15
 70
     1
102
RTVSPropertyOp16
 70
     1
102
RTVSPropertyOp17
 70
     1
102
RTVSPropertyOp18
 70
     1
102
RTVSPropertyOp19
 70
     1
102
RTVSPropertyOp20
 70
     1
102
RTVSPropertyOp21
 70
     1
102
RTVSPropertyOp22
 70
     1
102
RTVSPropertyOp23
 70
     1
102
RTVSPropertyOp24
 70
     1
102
RTVSPropertyOp25
 70
     1
102
RTVSPropertyOp26
 70
     1
102
RTVSPropertyOp27
 70
     1
102
RTVSPropertyOp28
 70
     1
102
RTVSPropertyOp29
 70
     1
102
RTVSPropertyOp30
 70
     1
102
RTVSPropertyOp31
 70
     1
102
RTVSPropertyOp32
 70
     1
102
RTVSPropertyOp33
 70
     1
102
RTVSPropertyOp34
 70
     1
102
RTVSPropertyOp35
 70
     1
102
RTVSPropertyOp36
 70
     1
102
RTVSPropertyOp37
 70
     1
102
RTVSPropertyOp38
 70
     1
102
RTVSPropertyOp39
 70
     1
102
RTVSPropertyOp40
 70
     1
102
RTVSPropertyOp41
 70
     1
102
RTVSPropertyOp42
 70
     1
102
RTVSPropertyOp43
 70
     1
102
RTVSPropertyOp44
 70
     1
102
RTVSPropertyOp45
 70
     1
102
RTVSPropertyOp46
 70
     1
102
RTVSPropertyOp47
 70
     1
102
RTVSPropertyOp48
 70
     1
102
RTVSPropertyOp49
 70
     1
102
RTVSPropertyOp50
 70
     1
102
RTVSPropertyOp51
 70
     0
102
RTVSPropertyOp52
 70
     0
102
RTVSPropertyOp53
 70
     1
102
RTVSPropertyOp54
 70
     1
102
RTVSPropertyOp55
 70
     1
102
RTVSPropertyOp56
 70
     1
102
RTVSPropertyOp57
 70
     1
102
RTVSPropertyOp58
 70
     1
102
RTVSPropertyOp59
 70
     1
102
RTVSPropertyOp60
 70
     1
102
RTVSPropertyOp61
 70
     1
102
RTVSPropertyOp62
 70
     1
  0
XRECORD
  5
C1DB
102
{ACAD_REACTORS
330
C1DA
102
}
330
C1DA
100
AcDbXrecord
280
     1
102
RTVSPost2010Prop28
280
     0
102
RTVSPost2010PropOp28
 70
     1
102
RTVSPost2010Prop29
280
     1
102
RTVSPost2010PropOp29
 70
     1
102
RTVSPost2010Prop30
280
     1
102
RTVSPost2010PropOp30
 70
     1
102
RTVSPost2010Prop31
280
     0
102
RTVSPost2010PropOp31
 70
     1
102
RTVSPost2010Prop32
280
     0
102
RTVSPost2010PropOp32
 70
     1
102
RTVSPost2010Prop33
280
     0
102
RTVSPost2010PropOp33
 70
     1
102
RTVSPost2010Prop34
280
     0
102
RTVSPost2010PropOp34
 70
     1
102
RTVSPost2010Prop35
280
     0
102
RTVSPost2010PropOp35
 70
     1
102
RTVSPost2010Prop36
280
     0
102
RTVSPost2010PropOp36
 70
     1
102
RTVSPost2010Prop37
 90
       50
102
RTVSPost2010PropOp37
 70
     1
102
RTVSPost2010Prop38
140
0.0
102
RTVSPost2010PropOp38
 70
     1
102
RTVSPost2010Prop39
140
1.0
102
RTVSPost2010PropOp39
 70
     1
102
RTVSPost2010Prop40
 90
        0
102
RTVSPost2010PropOp40
 70
     1
102
RTVSPost2010Prop41ColorIndex
 90
       18
102
RTVSPost2010Prop41ColorRGB
 90
        0
102
RTVSPost2010PropOp41
 70
     1
102
RTVSPost2010Prop42
 90
       50
102
RTVSPost2010PropOp42
 70
     1
102
RTVSPost2010Prop43
 90
        3
102
RTVSPost2010PropOp43
 70
     1
102
RTVSPost2010Prop44ColorIndex
 90
        5
102
RTVSPost2010Prop44ColorRGB
 90
      255
102
RTVSPost2010PropOp44
 70
     1
102
RTVSPost2010Prop45
280
     0
102
RTVSPost2010PropOp45
 70
     1
102
RTVSPost2010Prop46
 90
       50
102
RTVSPost2010PropOp46
 70
     1
102
RTVSPost2010Prop47
 90
       50
102
RTVSPost2010PropOp47
 70
     1
102
RTVSPost2010Prop48
 90
       50
102
RTVSPost2010PropOp48
 70
     1
102
RTVSPost2010Prop49
280
     0
102
RTVSPost2010PropOp49
 70
     1
102
RTVSPost2010Prop50
 90
       50
102
RTVSPost2010PropOp50
 70
     1
102
RTVSPost2010Prop51ColorIndex
 90
      256
102
RTVSPost2010Prop51ColorRGB
 90
-16777216
102
RTVSPost2010PropOp51
 70
     0
102
RTVSPost2010Prop52
140
1.0
102
RTVSPost2010PropOp52
 70
     0
102
RTVSPost2010Prop53
 90
        2
102
RTVSPost2010PropOp53
 70
     1
102
RTVSPost2010Prop54
  1
strokes_ogs.tif
102
RTVSPost2010PropOp54
 70
     1
102
RTVSPost2010Prop55
280
     0
102
RTVSPost2010PropOp55
 70
     1
102
RTVSPost2010Prop56
140
1.0
102
RTVSPost2010PropOp56
 70
     1
102
RTVSPost2010Prop57
140
1.0
102
RTVSPost2010PropOp57
 70
     1
102
RTVSPropertyOp0
 70
     1
102
RTVSPropertyOp1
 70
     1
102
RTVSPropertyOp2
 70
     1
102
RTVSPropertyOp3
 70
     1
102
RTVSPropertyOp4
 70
     1
102
RTVSPropertyOp5
 70
     1
102
RTVSPropertyOp6
 70
     1
102
RTVSPropertyOp7
 70
     1
102
RTVSPropertyOp8
 70
     1
102
RTVSPropertyOp9
 70
     1
102
RTVSPropertyOp10
 70
     1
102
RTVSPropertyOp11
 70
     1
102
RTVSPropertyOp12
 70
     1
102
RTVSPropertyOp13
 70
     1
102
RTVSPropertyOp14
 70
     1
102
RTVSPropertyOp15
 70
     1
102
RTVSPropertyOp16
 70
     1
102
RTVSPropertyOp17
 70
     1
102
RTVSPropertyOp18
 70
     1
102
RTVSPropertyOp19
 70
     1
102
RTVSPropertyOp20
 70
     1
102
RTVSPropertyOp21
 70
     1
102
RTVSPropertyOp22
 70
     1
102
RTVSPropertyOp23
 70
     1
102
RTVSPropertyOp24
 70
     1
102
RTVSPropertyOp25
 70
     1
102
RTVSPropertyOp26
 70
     1
102
RTVSPropertyOp27
 70
     1
102
RTVSPropertyOp28
 70
     1
102
RTVSPropertyOp29
 70
     1
102
RTVSPropertyOp30
 70
     1
102
RTVSPropertyOp31
 70
     1
102
RTVSPropertyOp32
 70
     1
102
RTVSPropertyOp33
 70
     1
102
RTVSPropertyOp34
 70
     1
102
RTVSPropertyOp35
 70
     1
102
RTVSPropertyOp36
 70
     1
102
RTVSPropertyOp37
 70
     1
102
RTVSPropertyOp38
 70
     1
102
RTVSPropertyOp39
 70
     1
102
RTVSPropertyOp40
 70
     1
102
RTVSPropertyOp41
 70
     1
102
RTVSPropertyOp42
 70
     1
102
RTVSPropertyOp43
 70
     1
102
RTVSPropertyOp44
 70
     1
102
RTVSPropertyOp45
 70
     1
102
RTVSPropertyOp46
 70
     1
102
RTVSPropertyOp47
 70
     1
102
RTVSPropertyOp48
 70
     1
102
RTVSPropertyOp49
 70
     1
102
RTVSPropertyOp50
 70
     1
102
RTVSPropertyOp51
 70
     0
102
RTVSPropertyOp52
 70
     0
102
RTVSPropertyOp53
 70
     1
102
RTVSPropertyOp54
 70
     1
102
RTVSPropertyOp55
 70
     1
102
RTVSPropertyOp56
 70
     1
102
RTVSPropertyOp57
 70
     1
102
RTVSPropertyOp58
 70
     1
102
RTVSPropertyOp59
 70
     1
102
RTVSPropertyOp60
 70
     1
102
RTVSPropertyOp61
 70
     1
102
RTVSPropertyOp62
 70
     1
  0
XRECORD
  5
C1D5
102
{ACAD_REACTORS
330
C1D4
102
}
330
C1D4
100
AcDbXrecord
280
     1
102
RTVSPost2010Prop28
280
     0
102
RTVSPost2010PropOp28
 70
     1
102
RTVSPost2010Prop29
280
     1
102
RTVSPost2010PropOp29
 70
     1
102
RTVSPost2010Prop30
280
     1
102
RTVSPost2010PropOp30
 70
     1
102
RTVSPost2010Prop31
280
     0
102
RTVSPost2010PropOp31
 70
     1
102
RTVSPost2010Prop32
280
     0
102
RTVSPost2010PropOp32
 70
     1
102
RTVSPost2010Prop33
280
     0
102
RTVSPost2010PropOp33
 70
     1
102
RTVSPost2010Prop34
280
     0
102
RTVSPost2010PropOp34
 70
     1
102
RTVSPost2010Prop35
280
     0
102
RTVSPost2010PropOp35
 70
     1
102
RTVSPost2010Prop36
280
     0
102
RTVSPost2010PropOp36
 70
     1
102
RTVSPost2010Prop37
 90
       50
102
RTVSPost2010PropOp37
 70
     1
102
RTVSPost2010Prop38
140
0.0
102
RTVSPost2010PropOp38
 70
     1
102
RTVSPost2010Prop39
140
1.0
102
RTVSPost2010PropOp39
 70
     1
102
RTVSPost2010Prop40
 90
        0
102
RTVSPost2010PropOp40
 70
     1
102
RTVSPost2010Prop41ColorIndex
 90
       18
102
RTVSPost2010Prop41ColorRGB
 90
        0
102
RTVSPost2010PropOp41
 70
     1
102
RTVSPost2010Prop42
 90
       50
102
RTVSPost2010PropOp42
 70
     1
102
RTVSPost2010Prop43
 90
        3
102
RTVSPost2010PropOp43
 70
     1
102
RTVSPost2010Prop44ColorIndex
 90
        5
102
RTVSPost2010Prop44ColorRGB
 90
      255
102
RTVSPost2010PropOp44
 70
     1
102
RTVSPost2010Prop45
280
     0
102
RTVSPost2010PropOp45
 70
     1
102
RTVSPost2010Prop46
 90
       50
102
RTVSPost2010PropOp46
 70
     1
102
RTVSPost2010Prop47
 90
       50
102
RTVSPost2010PropOp47
 70
     1
102
RTVSPost2010Prop48
 90
       50
102
RTVSPost2010PropOp48
 70
     1
102
RTVSPost2010Prop49
280
     0
102
RTVSPost2010PropOp49
 70
     1
102
RTVSPost2010Prop50
 90
       50
102
RTVSPost2010PropOp50
 70
     1
102
RTVSPost2010Prop51ColorIndex
 90
      256
102
RTVSPost2010Prop51ColorRGB
 90
-16777216
102
RTVSPost2010PropOp51
 70
     0
102
RTVSPost2010Prop52
140
1.0
102
RTVSPost2010PropOp52
 70
     0
102
RTVSPost2010Prop53
 90
        2
102
RTVSPost2010PropOp53
 70
     1
102
RTVSPost2010Prop54
  1
strokes_ogs.tif
102
RTVSPost2010PropOp54
 70
     1
102
RTVSPost2010Prop55
280
     0
102
RTVSPost2010PropOp55
 70
     1
102
RTVSPost2010Prop56
140
1.0
102
RTVSPost2010PropOp56
 70
     1
102
RTVSPost2010Prop57
140
1.0
102
RTVSPost2010PropOp57
 70
     1
102
RTVSPropertyOp0
 70
     1
102
RTVSPropertyOp1
 70
     1
102
RTVSPropertyOp2
 70
     1
102
RTVSPropertyOp3
 70
     1
102
RTVSPropertyOp4
 70
     1
102
RTVSPropertyOp5
 70
     1
102
RTVSPropertyOp6
 70
     1
102
RTVSPropertyOp7
 70
     1
102
RTVSPropertyOp8
 70
     1
102
RTVSPropertyOp9
 70
     1
102
RTVSPropertyOp10
 70
     1
102
RTVSPropertyOp11
 70
     1
102
RTVSPropertyOp12
 70
     1
102
RTVSPropertyOp13
 70
     1
102
RTVSPropertyOp14
 70
     1
102
RTVSPropertyOp15
 70
     1
102
RTVSPropertyOp16
 70
     1
102
RTVSPropertyOp17
 70
     1
102
RTVSPropertyOp18
 70
     1
102
RTVSPropertyOp19
 70
     1
102
RTVSPropertyOp20
 70
     1
102
RTVSPropertyOp21
 70
     1
102
RTVSPropertyOp22
 70
     1
102
RTVSPropertyOp23
 70
     1
102
RTVSPropertyOp24
 70
     1
102
RTVSPropertyOp25
 70
     1
102
RTVSPropertyOp26
 70
     1
102
RTVSPropertyOp27
 70
     1
102
RTVSPropertyOp28
 70
     1
102
RTVSPropertyOp29
 70
     1
102
RTVSPropertyOp30
 70
     1
102
RTVSPropertyOp31
 70
     1
102
RTVSPropertyOp32
 70
     1
102
RTVSPropertyOp33
 70
     1
102
RTVSPropertyOp34
 70
     1
102
RTVSPropertyOp35
 70
     1
102
RTVSPropertyOp36
 70
     1
102
RTVSPropertyOp37
 70
     1
102
RTVSPropertyOp38
 70
     1
102
RTVSPropertyOp39
 70
     1
102
RTVSPropertyOp40
 70
     1
102
RTVSPropertyOp41
 70
     1
102
RTVSPropertyOp42
 70
     1
102
RTVSPropertyOp43
 70
     1
102
RTVSPropertyOp44
 70
     1
102
RTVSPropertyOp45
 70
     1
102
RTVSPropertyOp46
 70
     1
102
RTVSPropertyOp47
 70
     1
102
RTVSPropertyOp48
 70
     1
102
RTVSPropertyOp49
 70
     1
102
RTVSPropertyOp50
 70
     1
102
RTVSPropertyOp51
 70
     0
102
RTVSPropertyOp52
 70
     0
102
RTVSPropertyOp53
 70
     1
102
RTVSPropertyOp54
 70
     1
102
RTVSPropertyOp55
 70
     1
102
RTVSPropertyOp56
 70
     1
102
RTVSPropertyOp57
 70
     1
102
RTVSPropertyOp58
 70
     1
102
RTVSPropertyOp59
 70
     1
102
RTVSPropertyOp60
 70
     1
102
RTVSPropertyOp61
 70
     1
102
RTVSPropertyOp62
 70
     1
  0
XRECORD
  5
C1D7
102
{ACAD_REACTORS
330
C1D6
102
}
330
C1D6
100
AcDbXrecord
280
     1
102
RTVSPost2010Prop28
280
     0
102
RTVSPost2010PropOp28
 70
     1
102
RTVSPost2010Prop29
280
     1
102
RTVSPost2010PropOp29
 70
     1
102
RTVSPost2010Prop30
280
     1
102
RTVSPost2010PropOp30
 70
     1
102
RTVSPost2010Prop31
280
     0
102
RTVSPost2010PropOp31
 70
     1
102
RTVSPost2010Prop32
280
     0
102
RTVSPost2010PropOp32
 70
     1
102
RTVSPost2010Prop33
280
     0
102
RTVSPost2010PropOp33
 70
     1
102
RTVSPost2010Prop34
280
     0
102
RTVSPost2010PropOp34
 70
     1
102
RTVSPost2010Prop35
280
     0
102
RTVSPost2010PropOp35
 70
     1
102
RTVSPost2010Prop36
280
     0
102
RTVSPost2010PropOp36
 70
     1
102
RTVSPost2010Prop37
 90
       50
102
RTVSPost2010PropOp37
 70
     1
102
RTVSPost2010Prop38
140
0.0
102
RTVSPost2010PropOp38
 70
     1
102
RTVSPost2010Prop39
140
1.0
102
RTVSPost2010PropOp39
 70
     1
102
RTVSPost2010Prop40
 90
        0
102
RTVSPost2010PropOp40
 70
     1
102
RTVSPost2010Prop41ColorIndex
 90
       18
102
RTVSPost2010Prop41ColorRGB
 90
        0
102
RTVSPost2010PropOp41
 70
     1
102
RTVSPost2010Prop42
 90
       50
102
RTVSPost2010PropOp42
 70
     1
102
RTVSPost2010Prop43
 90
        3
102
RTVSPost2010PropOp43
 70
     1
102
RTVSPost2010Prop44ColorIndex
 90
        5
102
RTVSPost2010Prop44ColorRGB
 90
      255
102
RTVSPost2010PropOp44
 70
     1
102
RTVSPost2010Prop45
280
     0
102
RTVSPost2010PropOp45
 70
     1
102
RTVSPost2010Prop46
 90
       50
102
RTVSPost2010PropOp46
 70
     1
102
RTVSPost2010Prop47
 90
       50
102
RTVSPost2010PropOp47
 70
     1
102
RTVSPost2010Prop48
 90
       50
102
RTVSPost2010PropOp48
 70
     1
102
RTVSPost2010Prop49
280
     0
102
RTVSPost2010PropOp49
 70
     1
102
RTVSPost2010Prop50
 90
       50
102
RTVSPost2010PropOp50
 70
     1
102
RTVSPost2010Prop51ColorIndex
 90
      256
102
RTVSPost2010Prop51ColorRGB
 90
-16777216
102
RTVSPost2010PropOp51
 70
     0
102
RTVSPost2010Prop52
140
1.0
102
RTVSPost2010PropOp52
 70
     0
102
RTVSPost2010Prop53
 90
        2
102
RTVSPost2010PropOp53
 70
     1
102
RTVSPost2010Prop54
  1
strokes_ogs.tif
102
RTVSPost2010PropOp54
 70
     1
102
RTVSPost2010Prop55
280
     0
102
RTVSPost2010PropOp55
 70
     1
102
RTVSPost2010Prop56
140
1.0
102
RTVSPost2010PropOp56
 70
     1
102
RTVSPost2010Prop57
140
1.0
102
RTVSPost2010PropOp57
 70
     1
102
RTVSPropertyOp0
 70
     1
102
RTVSPropertyOp1
 70
     1
102
RTVSPropertyOp2
 70
     1
102
RTVSPropertyOp3
 70
     1
102
RTVSPropertyOp4
 70
     1
102
RTVSPropertyOp5
 70
     1
102
RTVSPropertyOp6
 70
     1
102
RTVSPropertyOp7
 70
     1
102
RTVSPropertyOp8
 70
     1
102
RTVSPropertyOp9
 70
     1
102
RTVSPropertyOp10
 70
     1
102
RTVSPropertyOp11
 70
     1
102
RTVSPropertyOp12
 70
     1
102
RTVSPropertyOp13
 70
     1
102
RTVSPropertyOp14
 70
     1
102
RTVSPropertyOp15
 70
     1
102
RTVSPropertyOp16
 70
     1
102
RTVSPropertyOp17
 70
     1
102
RTVSPropertyOp18
 70
     1
102
RTVSPropertyOp19
 70
     1
102
RTVSPropertyOp20
 70
     1
102
RTVSPropertyOp21
 70
     1
102
RTVSPropertyOp22
 70
     1
102
RTVSPropertyOp23
 70
     1
102
RTVSPropertyOp24
 70
     1
102
RTVSPropertyOp25
 70
     1
102
RTVSPropertyOp26
 70
     1
102
RTVSPropertyOp27
 70
     1
102
RTVSPropertyOp28
 70
     1
102
RTVSPropertyOp29
 70
     1
102
RTVSPropertyOp30
 70
     1
102
RTVSPropertyOp31
 70
     1
102
RTVSPropertyOp32
 70
     1
102
RTVSPropertyOp33
 70
     1
102
RTVSPropertyOp34
 70
     1
102
RTVSPropertyOp35
 70
     1
102
RTVSPropertyOp36
 70
     1
102
RTVSPropertyOp37
 70
     1
102
RTVSPropertyOp38
 70
     1
102
RTVSPropertyOp39
 70
     1
102
RTVSPropertyOp40
 70
     1
102
RTVSPropertyOp41
 70
     1
102
RTVSPropertyOp42
 70
     1
102
RTVSPropertyOp43
 70
     1
102
RTVSPropertyOp44
 70
     1
102
RTVSPropertyOp45
 70
     1
102
RTVSPropertyOp46
 70
     1
102
RTVSPropertyOp47
 70
     1
102
RTVSPropertyOp48
 70
     1
102
RTVSPropertyOp49
 70
     1
102
RTVSPropertyOp50
 70
     1
102
RTVSPropertyOp51
 70
     0
102
RTVSPropertyOp52
 70
     0
102
RTVSPropertyOp53
 70
     1
102
RTVSPropertyOp54
 70
     1
102
RTVSPropertyOp55
 70
     1
102
RTVSPropertyOp56
 70
     1
102
RTVSPropertyOp57
 70
     1
102
RTVSPropertyOp58
 70
     1
102
RTVSPropertyOp59
 70
     1
102
RTVSPropertyOp60
 70
     1
102
RTVSPropertyOp61
 70
     1
102
RTVSPropertyOp62
 70
     1
  0
XRECORD
  5
C1C5
102
{ACAD_REACTORS
330
C1C4
102
}
330
C1C4
100
AcDbXrecord
280
     1
102
RTVSPost2010Prop28
280
     0
102
RTVSPost2010PropOp28
 70
     1
102
RTVSPost2010Prop29
280
     1
102
RTVSPost2010PropOp29
 70
     1
102
RTVSPost2010Prop30
280
     1
102
RTVSPost2010PropOp30
 70
     1
102
RTVSPost2010Prop31
280
     0
102
RTVSPost2010PropOp31
 70
     1
102
RTVSPost2010Prop32
280
     0
102
RTVSPost2010PropOp32
 70
     1
102
RTVSPost2010Prop33
280
     0
102
RTVSPost2010PropOp33
 70
     1
102
RTVSPost2010Prop34
280
     0
102
RTVSPost2010PropOp34
 70
     1
102
RTVSPost2010Prop35
280
     0
102
RTVSPost2010PropOp35
 70
     1
102
RTVSPost2010Prop36
280
     0
102
RTVSPost2010PropOp36
 70
     1
102
RTVSPost2010Prop37
 90
       50
102
RTVSPost2010PropOp37
 70
     1
102
RTVSPost2010Prop38
140
0.0
102
RTVSPost2010PropOp38
 70
     1
102
RTVSPost2010Prop39
140
1.0
102
RTVSPost2010PropOp39
 70
     1
102
RTVSPost2010Prop40
 90
        0
102
RTVSPost2010PropOp40
 70
     1
102
RTVSPost2010Prop41ColorIndex
 90
       18
102
RTVSPost2010Prop41ColorRGB
 90
        0
102
RTVSPost2010PropOp41
 70
     1
102
RTVSPost2010Prop42
 90
       50
102
RTVSPost2010PropOp42
 70
     1
102
RTVSPost2010Prop43
 90
        3
102
RTVSPost2010PropOp43
 70
     1
102
RTVSPost2010Prop44ColorIndex
 90
        5
102
RTVSPost2010Prop44ColorRGB
 90
      255
102
RTVSPost2010PropOp44
 70
     1
102
RTVSPost2010Prop45
280
     0
102
RTVSPost2010PropOp45
 70
     1
102
RTVSPost2010Prop46
 90
       50
102
RTVSPost2010PropOp46
 70
     1
102
RTVSPost2010Prop47
 90
       50
102
RTVSPost2010PropOp47
 70
     1
102
RTVSPost2010Prop48
 90
       50
102
RTVSPost2010PropOp48
 70
     1
102
RTVSPost2010Prop49
280
     0
102
RTVSPost2010PropOp49
 70
     1
102
RTVSPost2010Prop50
 90
       50
102
RTVSPost2010PropOp50
 70
     1
102
RTVSPost2010Prop51ColorIndex
 90
      256
102
RTVSPost2010Prop51ColorRGB
 90
-16777216
102
RTVSPost2010PropOp51
 70
     0
102
RTVSPost2010Prop52
140
1.0
102
RTVSPost2010PropOp52
 70
     0
102
RTVSPost2010Prop53
 90
        2
102
RTVSPost2010PropOp53
 70
     1
102
RTVSPost2010Prop54
  1
strokes_ogs.tif
102
RTVSPost2010PropOp54
 70
     1
102
RTVSPost2010Prop55
280
     0
102
RTVSPost2010PropOp55
 70
     1
102
RTVSPost2010Prop56
140
1.0
102
RTVSPost2010PropOp56
 70
     1
102
RTVSPost2010Prop57
140
1.0
102
RTVSPost2010PropOp57
 70
     1
102
RTVSPropertyOp0
 70
     1
102
RTVSPropertyOp1
 70
     1
102
RTVSPropertyOp2
 70
     1
102
RTVSPropertyOp3
 70
     1
102
RTVSPropertyOp4
 70
     1
102
RTVSPropertyOp5
 70
     1
102
RTVSPropertyOp6
 70
     1
102
RTVSPropertyOp7
 70
     1
102
RTVSPropertyOp8
 70
     1
102
RTVSPropertyOp9
 70
     1
102
RTVSPropertyOp10
 70
     1
102
RTVSPropertyOp11
 70
     1
102
RTVSPropertyOp12
 70
     1
102
RTVSPropertyOp13
 70
     1
102
RTVSPropertyOp14
 70
     1
102
RTVSPropertyOp15
 70
     1
102
RTVSPropertyOp16
 70
     1
102
RTVSPropertyOp17
 70
     1
102
RTVSPropertyOp18
 70
     1
102
RTVSPropertyOp19
 70
     1
102
RTVSPropertyOp20
 70
     1
102
RTVSPropertyOp21
 70
     1
102
RTVSPropertyOp22
 70
     1
102
RTVSPropertyOp23
 70
     1
102
RTVSPropertyOp24
 70
     1
102
RTVSPropertyOp25
 70
     1
102
RTVSPropertyOp26
 70
     1
102
RTVSPropertyOp27
 70
     1
102
RTVSPropertyOp28
 70
     1
102
RTVSPropertyOp29
 70
     1
102
RTVSPropertyOp30
 70
     1
102
RTVSPropertyOp31
 70
     1
102
RTVSPropertyOp32
 70
     1
102
RTVSPropertyOp33
 70
     1
102
RTVSPropertyOp34
 70
     1
102
RTVSPropertyOp35
 70
     1
102
RTVSPropertyOp36
 70
     1
102
RTVSPropertyOp37
 70
     1
102
RTVSPropertyOp38
 70
     1
102
RTVSPropertyOp39
 70
     1
102
RTVSPropertyOp40
 70
     1
102
RTVSPropertyOp41
 70
     1
102
RTVSPropertyOp42
 70
     1
102
RTVSPropertyOp43
 70
     1
102
RTVSPropertyOp44
 70
     1
102
RTVSPropertyOp45
 70
     1
102
RTVSPropertyOp46
 70
     1
102
RTVSPropertyOp47
 70
     1
102
RTVSPropertyOp48
 70
     1
102
RTVSPropertyOp49
 70
     1
102
RTVSPropertyOp50
 70
     1
102
RTVSPropertyOp51
 70
     0
102
RTVSPropertyOp52
 70
     0
102
RTVSPropertyOp53
 70
     1
102
RTVSPropertyOp54
 70
     1
102
RTVSPropertyOp55
 70
     1
102
RTVSPropertyOp56
 70
     1
102
RTVSPropertyOp57
 70
     1
102
RTVSPropertyOp58
 70
     1
102
RTVSPropertyOp59
 70
     1
102
RTVSPropertyOp60
 70
     1
102
RTVSPropertyOp61
 70
     1
102
RTVSPropertyOp62
 70
     1
  0
XRECORD
  5
C1B9
102
{ACAD_REACTORS
330
C1B8
102
}
330
C1B8
100
AcDbXrecord
280
     1
102
RTVSPost2010Prop28
280
     0
102
RTVSPost2010PropOp28
 70
     1
102
RTVSPost2010Prop29
280
     1
102
RTVSPost2010PropOp29
 70
     1
102
RTVSPost2010Prop30
280
     1
102
RTVSPost2010PropOp30
 70
     1
102
RTVSPost2010Prop31
280
     0
102
RTVSPost2010PropOp31
 70
     1
102
RTVSPost2010Prop32
280
     0
102
RTVSPost2010PropOp32
 70
     1
102
RTVSPost2010Prop33
280
     0
102
RTVSPost2010PropOp33
 70
     1
102
RTVSPost2010Prop34
280
     0
102
RTVSPost2010PropOp34
 70
     1
102
RTVSPost2010Prop35
280
     0
102
RTVSPost2010PropOp35
 70
     1
102
RTVSPost2010Prop36
280
     0
102
RTVSPost2010PropOp36
 70
     1
102
RTVSPost2010Prop37
 90
       50
102
RTVSPost2010PropOp37
 70
     1
102
RTVSPost2010Prop38
140
0.0
102
RTVSPost2010PropOp38
 70
     1
102
RTVSPost2010Prop39
140
1.0
102
RTVSPost2010PropOp39
 70
     1
102
RTVSPost2010Prop40
 90
        0
102
RTVSPost2010PropOp40
 70
     1
102
RTVSPost2010Prop41ColorIndex
 90
       18
102
RTVSPost2010Prop41ColorRGB
 90
        0
102
RTVSPost2010PropOp41
 70
     1
102
RTVSPost2010Prop42
 90
       50
102
RTVSPost2010PropOp42
 70
     1
102
RTVSPost2010Prop43
 90
        3
102
RTVSPost2010PropOp43
 70
     1
102
RTVSPost2010Prop44ColorIndex
 90
        5
102
RTVSPost2010Prop44ColorRGB
 90
      255
102
RTVSPost2010PropOp44
 70
     1
102
RTVSPost2010Prop45
280
     0
102
RTVSPost2010PropOp45
 70
     1
102
RTVSPost2010Prop46
 90
       50
102
RTVSPost2010PropOp46
 70
     1
102
RTVSPost2010Prop47
 90
       50
102
RTVSPost2010PropOp47
 70
     1
102
RTVSPost2010Prop48
 90
       50
102
RTVSPost2010PropOp48
 70
     1
102
RTVSPost2010Prop49
280
     0
102
RTVSPost2010PropOp49
 70
     1
102
RTVSPost2010Prop50
 90
       50
102
RTVSPost2010PropOp50
 70
     1
102
RTVSPost2010Prop51ColorIndex
 90
      256
102
RTVSPost2010Prop51ColorRGB
 90
-16777216
102
RTVSPost2010PropOp51
 70
     0
102
RTVSPost2010Prop52
140
1.0
102
RTVSPost2010PropOp52
 70
     0
102
RTVSPost2010Prop53
 90
        2
102
RTVSPost2010PropOp53
 70
     1
102
RTVSPost2010Prop54
  1
strokes_ogs.tif
102
RTVSPost2010PropOp54
 70
     1
102
RTVSPost2010Prop55
280
     0
102
RTVSPost2010PropOp55
 70
     1
102
RTVSPost2010Prop56
140
1.0
102
RTVSPost2010PropOp56
 70
     1
102
RTVSPost2010Prop57
140
1.0
102
RTVSPost2010PropOp57
 70
     1
102
RTVSPropertyOp0
 70
     1
102
RTVSPropertyOp1
 70
     1
102
RTVSPropertyOp2
 70
     1
102
RTVSPropertyOp3
 70
     1
102
RTVSPropertyOp4
 70
     1
102
RTVSPropertyOp5
 70
     1
102
RTVSPropertyOp6
 70
     1
102
RTVSPropertyOp7
 70
     1
102
RTVSPropertyOp8
 70
     1
102
RTVSPropertyOp9
 70
     1
102
RTVSPropertyOp10
 70
     1
102
RTVSPropertyOp11
 70
     1
102
RTVSPropertyOp12
 70
     1
102
RTVSPropertyOp13
 70
     1
102
RTVSPropertyOp14
 70
     1
102
RTVSPropertyOp15
 70
     1
102
RTVSPropertyOp16
 70
     1
102
RTVSPropertyOp17
 70
     1
102
RTVSPropertyOp18
 70
     1
102
RTVSPropertyOp19
 70
     1
102
RTVSPropertyOp20
 70
     1
102
RTVSPropertyOp21
 70
     1
102
RTVSPropertyOp22
 70
     1
102
RTVSPropertyOp23
 70
     1
102
RTVSPropertyOp24
 70
     1
102
RTVSPropertyOp25
 70
     1
102
RTVSPropertyOp26
 70
     1
102
RTVSPropertyOp27
 70
     1
102
RTVSPropertyOp28
 70
     1
102
RTVSPropertyOp29
 70
     1
102
RTVSPropertyOp30
 70
     1
102
RTVSPropertyOp31
 70
     1
102
RTVSPropertyOp32
 70
     1
102
RTVSPropertyOp33
 70
     1
102
RTVSPropertyOp34
 70
     1
102
RTVSPropertyOp35
 70
     1
102
RTVSPropertyOp36
 70
     1
102
RTVSPropertyOp37
 70
     1
102
RTVSPropertyOp38
 70
     1
102
RTVSPropertyOp39
 70
     1
102
RTVSPropertyOp40
 70
     1
102
RTVSPropertyOp41
 70
     1
102
RTVSPropertyOp42
 70
     1
102
RTVSPropertyOp43
 70
     1
102
RTVSPropertyOp44
 70
     1
102
RTVSPropertyOp45
 70
     1
102
RTVSPropertyOp46
 70
     1
102
RTVSPropertyOp47
 70
     1
102
RTVSPropertyOp48
 70
     1
102
RTVSPropertyOp49
 70
     1
102
RTVSPropertyOp50
 70
     1
102
RTVSPropertyOp51
 70
     0
102
RTVSPropertyOp52
 70
     0
102
RTVSPropertyOp53
 70
     1
102
RTVSPropertyOp54
 70
     1
102
RTVSPropertyOp55
 70
     1
102
RTVSPropertyOp56
 70
     1
102
RTVSPropertyOp57
 70
     1
102
RTVSPropertyOp58
 70
     1
102
RTVSPropertyOp59
 70
     1
102
RTVSPropertyOp60
 70
     1
102
RTVSPropertyOp61
 70
     1
102
RTVSPropertyOp62
 70
     1
  0
XRECORD
  5
C1D9
102
{ACAD_REACTORS
330
C1D8
102
}
330
C1D8
100
AcDbXrecord
280
     1
102
RTVSPost2010Prop28
280
     0
102
RTVSPost2010PropOp28
 70
     1
102
RTVSPost2010Prop29
280
     1
102
RTVSPost2010PropOp29
 70
     1
102
RTVSPost2010Prop30
280
     1
102
RTVSPost2010PropOp30
 70
     1
102
RTVSPost2010Prop31
280
     0
102
RTVSPost2010PropOp31
 70
     1
102
RTVSPost2010Prop32
280
     0
102
RTVSPost2010PropOp32
 70
     1
102
RTVSPost2010Prop33
280
     0
102
RTVSPost2010PropOp33
 70
     1
102
RTVSPost2010Prop34
280
     0
102
RTVSPost2010PropOp34
 70
     1
102
RTVSPost2010Prop35
280
     0
102
RTVSPost2010PropOp35
 70
     1
102
RTVSPost2010Prop36
280
     0
102
RTVSPost2010PropOp36
 70
     1
102
RTVSPost2010Prop37
 90
       50
102
RTVSPost2010PropOp37
 70
     1
102
RTVSPost2010Prop38
140
0.0
102
RTVSPost2010PropOp38
 70
     1
102
RTVSPost2010Prop39
140
1.0
102
RTVSPost2010PropOp39
 70
     1
102
RTVSPost2010Prop40
 90
        0
102
RTVSPost2010PropOp40
 70
     1
102
RTVSPost2010Prop41ColorIndex
 90
       18
102
RTVSPost2010Prop41ColorRGB
 90
        0
102
RTVSPost2010PropOp41
 70
     1
102
RTVSPost2010Prop42
 90
       50
102
RTVSPost2010PropOp42
 70
     1
102
RTVSPost2010Prop43
 90
        3
102
RTVSPost2010PropOp43
 70
     1
102
RTVSPost2010Prop44ColorIndex
 90
        5
102
RTVSPost2010Prop44ColorRGB
 90
      255
102
RTVSPost2010PropOp44
 70
     1
102
RTVSPost2010Prop45
280
     0
102
RTVSPost2010PropOp45
 70
     1
102
RTVSPost2010Prop46
 90
       50
102
RTVSPost2010PropOp46
 70
     1
102
RTVSPost2010Prop47
 90
       50
102
RTVSPost2010PropOp47
 70
     1
102
RTVSPost2010Prop48
 90
       50
102
RTVSPost2010PropOp48
 70
     1
102
RTVSPost2010Prop49
280
     0
102
RTVSPost2010PropOp49
 70
     1
102
RTVSPost2010Prop50
 90
       50
102
RTVSPost2010PropOp50
 70
     1
102
RTVSPost2010Prop51ColorIndex
 90
      256
102
RTVSPost2010Prop51ColorRGB
 90
-16777216
102
RTVSPost2010PropOp51
 70
     0
102
RTVSPost2010Prop52
140
1.0
102
RTVSPost2010PropOp52
 70
     0
102
RTVSPost2010Prop53
 90
        2
102
RTVSPost2010PropOp53
 70
     1
102
RTVSPost2010Prop54
  1
strokes_ogs.tif
102
RTVSPost2010PropOp54
 70
     1
102
RTVSPost2010Prop55
280
     0
102
RTVSPost2010PropOp55
 70
     1
102
RTVSPost2010Prop56
140
1.0
102
RTVSPost2010PropOp56
 70
     1
102
RTVSPost2010Prop57
140
1.0
102
RTVSPost2010PropOp57
 70
     1
102
RTVSPropertyOp0
 70
     1
102
RTVSPropertyOp1
 70
     1
102
RTVSPropertyOp2
 70
     1
102
RTVSPropertyOp3
 70
     1
102
RTVSPropertyOp4
 70
     1
102
RTVSPropertyOp5
 70
     1
102
RTVSPropertyOp6
 70
     1
102
RTVSPropertyOp7
 70
     1
102
RTVSPropertyOp8
 70
     1
102
RTVSPropertyOp9
 70
     1
102
RTVSPropertyOp10
 70
     1
102
RTVSPropertyOp11
 70
     1
102
RTVSPropertyOp12
 70
     1
102
RTVSPropertyOp13
 70
     1
102
RTVSPropertyOp14
 70
     1
102
RTVSPropertyOp15
 70
     1
102
RTVSPropertyOp16
 70
     1
102
RTVSPropertyOp17
 70
     1
102
RTVSPropertyOp18
 70
     1
102
RTVSPropertyOp19
 70
     1
102
RTVSPropertyOp20
 70
     1
102
RTVSPropertyOp21
 70
     1
102
RTVSPropertyOp22
 70
     1
102
RTVSPropertyOp23
 70
     1
102
RTVSPropertyOp24
 70
     1
102
RTVSPropertyOp25
 70
     1
102
RTVSPropertyOp26
 70
     1
102
RTVSPropertyOp27
 70
     1
102
RTVSPropertyOp28
 70
     1
102
RTVSPropertyOp29
 70
     1
102
RTVSPropertyOp30
 70
     1
102
RTVSPropertyOp31
 70
     1
102
RTVSPropertyOp32
 70
     1
102
RTVSPropertyOp33
 70
     1
102
RTVSPropertyOp34
 70
     1
102
RTVSPropertyOp35
 70
     1
102
RTVSPropertyOp36
 70
     1
102
RTVSPropertyOp37
 70
     1
102
RTVSPropertyOp38
 70
     1
102
RTVSPropertyOp39
 70
     1
102
RTVSPropertyOp40
 70
     1
102
RTVSPropertyOp41
 70
     1
102
RTVSPropertyOp42
 70
     1
102
RTVSPropertyOp43
 70
     1
102
RTVSPropertyOp44
 70
     1
102
RTVSPropertyOp45
 70
     1
102
RTVSPropertyOp46
 70
     1
102
RTVSPropertyOp47
 70
     1
102
RTVSPropertyOp48
 70
     1
102
RTVSPropertyOp49
 70
     1
102
RTVSPropertyOp50
 70
     1
102
RTVSPropertyOp51
 70
     0
102
RTVSPropertyOp52
 70
     0
102
RTVSPropertyOp53
 70
     1
102
RTVSPropertyOp54
 70
     1
102
RTVSPropertyOp55
 70
     1
102
RTVSPropertyOp56
 70
     1
102
RTVSPropertyOp57
 70
     1
102
RTVSPropertyOp58
 70
     1
102
RTVSPropertyOp59
 70
     1
102
RTVSPropertyOp60
 70
     1
102
RTVSPropertyOp61
 70
     1
102
RTVSPropertyOp62
 70
     1
  0
ENDSEC
  0
EOF
